  0
SECTION
  2
HEADER
  9
$ACADVER
  1
AC1009
  9
$EXTMIN
 10
-58.62200000
 20
-58.62200000
 30
0.0
  9
$EXTMAX
 10
58.62200000
 20
58.62200000
 30
0.0
  0
ENDSEC
  0
SECTION
  2
TABLES
  0
TABLE
  2
LAYER
 70
1
 0
LAYER
 2
0
 70
0
 62
1
 6
CONTINUOUS
 0
ENDTAB
 0
ENDSEC
  0
SECTION
  2
ENTITIES
  0
POLYLINE
  8
0
 66
   1
 39
0.000000
 70
    1
  0
VERTEX
  8
0
 10
-15.15600000
 20
0.00000000
  0
VERTEX
  8
0
 10
-15.13627911
 20
0.77992575
  0
VERTEX
  8
0
 10
-15.07775128
 20
1.54961296
  0
VERTEX
  8
0
 10
-14.98136880
 20
2.30810935
  0
VERTEX
  8
0
 10
-14.84808395
 20
3.05446263
  0
VERTEX
  8
0
 10
-14.67884900
 20
3.78772054
  0
VERTEX
  8
0
 10
-14.47461624
 20
4.50693078
  0
VERTEX
  8
0
 10
-14.23633794
 20
5.21114109
  0
VERTEX
  8
0
 10
-13.96496639
 20
5.89939917
  0
VERTEX
  8
0
 10
-13.66145386
 20
6.57075276
  0
VERTEX
  8
0
 10
-13.32675264
 20
7.22424956
  0
VERTEX
  8
0
 10
-12.96181501
 20
7.85893731
  0
VERTEX
  8
0
 10
-12.56759323
 20
8.47386372
  0
VERTEX
  8
0
 10
-12.14503960
 20
9.06807651
  0
VERTEX
  8
0
 10
-11.69510640
 20
9.64062340
  0
VERTEX
  8
0
 10
-11.21874590
 20
10.19055212
  0
VERTEX
  8
0
 10
-10.71691038
 20
10.71691038
  0
VERTEX
  8
0
 10
-10.19055212
 20
11.21874590
  0
VERTEX
  8
0
 10
-9.64062340
 20
11.69510640
  0
VERTEX
  8
0
 10
-9.06807651
 20
12.14503960
  0
VERTEX
  8
0
 10
-8.47386372
 20
12.56759323
  0
VERTEX
  8
0
 10
-7.85893731
 20
12.96181501
  0
VERTEX
  8
0
 10
-7.22424956
 20
13.32675264
  0
VERTEX
  8
0
 10
-6.57075276
 20
13.66145386
  0
VERTEX
  8
0
 10
-5.89939917
 20
13.96496639
  0
VERTEX
  8
0
 10
-5.21114109
 20
14.23633794
  0
VERTEX
  8
0
 10
-4.50693078
 20
14.47461624
  0
VERTEX
  8
0
 10
-3.78772054
 20
14.67884900
  0
VERTEX
  8
0
 10
-3.05446263
 20
14.84808395
  0
VERTEX
  8
0
 10
-2.30810935
 20
14.98136880
  0
VERTEX
  8
0
 10
-1.54961296
 20
15.07775128
  0
VERTEX
  8
0
 10
0.00000000
 20
15.15600000
  0
VERTEX
  8
0
 10
0.77992575
 20
15.13627911
  0
VERTEX
  8
0
 10
1.54961296
 20
15.07775128
  0
VERTEX
  8
0
 10
2.30810935
 20
14.98136880
  0
VERTEX
  8
0
 10
3.05446263
 20
14.84808395
  0
VERTEX
  8
0
 10
3.78772054
 20
14.67884900
  0
VERTEX
  8
0
 10
4.50693078
 20
14.47461624
  0
VERTEX
  8
0
 10
5.21114109
 20
14.23633794
  0
VERTEX
  8
0
 10
5.89939917
 20
13.96496639
  0
VERTEX
  8
0
 10
6.57075276
 20
13.66145386
  0
VERTEX
  8
0
 10
7.22424956
 20
13.32675264
  0
VERTEX
  8
0
 10
7.85893731
 20
12.96181501
  0
VERTEX
  8
0
 10
8.47386372
 20
12.56759323
  0
VERTEX
  8
0
 10
9.06807651
 20
12.14503960
  0
VERTEX
  8
0
 10
9.64062340
 20
11.69510640
  0
VERTEX
  8
0
 10
10.19055212
 20
11.21874590
  0
VERTEX
  8
0
 10
10.71691038
 20
10.71691038
  0
VERTEX
  8
0
 10
11.21874590
 20
10.19055212
  0
VERTEX
  8
0
 10
11.69510640
 20
9.64062340
  0
VERTEX
  8
0
 10
12.14503960
 20
9.06807651
  0
VERTEX
  8
0
 10
12.56759323
 20
8.47386372
  0
VERTEX
  8
0
 10
12.96181501
 20
7.85893731
  0
VERTEX
  8
0
 10
13.32675264
 20
7.22424956
  0
VERTEX
  8
0
 10
13.66145386
 20
6.57075276
  0
VERTEX
  8
0
 10
13.96496639
 20
5.89939917
  0
VERTEX
  8
0
 10
14.23633794
 20
5.21114109
  0
VERTEX
  8
0
 10
14.47461624
 20
4.50693078
  0
VERTEX
  8
0
 10
14.67884900
 20
3.78772054
  0
VERTEX
  8
0
 10
14.84808395
 20
3.05446263
  0
VERTEX
  8
0
 10
14.98136880
 20
2.30810935
  0
VERTEX
  8
0
 10
15.07775128
 20
1.54961296
  0
VERTEX
  8
0
 10
15.15600000
 20
0.00000000
  0
VERTEX
  8
0
 10
15.13627911
 20
-0.77992575
  0
VERTEX
  8
0
 10
15.07775128
 20
-1.54961296
  0
VERTEX
  8
0
 10
14.98136880
 20
-2.30810935
  0
VERTEX
  8
0
 10
14.84808395
 20
-3.05446263
  0
VERTEX
  8
0
 10
14.67884900
 20
-3.78772054
  0
VERTEX
  8
0
 10
14.47461624
 20
-4.50693078
  0
VERTEX
  8
0
 10
14.23633794
 20
-5.21114109
  0
VERTEX
  8
0
 10
13.96496639
 20
-5.89939917
  0
VERTEX
  8
0
 10
13.66145386
 20
-6.57075276
  0
VERTEX
  8
0
 10
13.32675264
 20
-7.22424956
  0
VERTEX
  8
0
 10
12.96181501
 20
-7.85893731
  0
VERTEX
  8
0
 10
12.56759323
 20
-8.47386372
  0
VERTEX
  8
0
 10
12.14503960
 20
-9.06807651
  0
VERTEX
  8
0
 10
11.69510640
 20
-9.64062340
  0
VERTEX
  8
0
 10
11.21874590
 20
-10.19055212
  0
VERTEX
  8
0
 10
10.71691038
 20
-10.71691038
  0
VERTEX
  8
0
 10
10.19055212
 20
-11.21874590
  0
VERTEX
  8
0
 10
9.64062340
 20
-11.69510640
  0
VERTEX
  8
0
 10
9.06807651
 20
-12.14503960
  0
VERTEX
  8
0
 10
8.47386372
 20
-12.56759323
  0
VERTEX
  8
0
 10
7.85893731
 20
-12.96181501
  0
VERTEX
  8
0
 10
7.22424956
 20
-13.32675264
  0
VERTEX
  8
0
 10
6.57075276
 20
-13.66145386
  0
VERTEX
  8
0
 10
5.89939917
 20
-13.96496639
  0
VERTEX
  8
0
 10
5.21114109
 20
-14.23633794
  0
VERTEX
  8
0
 10
4.50693078
 20
-14.47461624
  0
VERTEX
  8
0
 10
3.78772054
 20
-14.67884900
  0
VERTEX
  8
0
 10
3.05446263
 20
-14.84808395
  0
VERTEX
  8
0
 10
2.30810935
 20
-14.98136880
  0
VERTEX
  8
0
 10
1.54961296
 20
-15.07775128
  0
VERTEX
  8
0
 10
0.00000000
 20
-15.15600000
  0
VERTEX
  8
0
 10
-0.77992575
 20
-15.13627911
  0
VERTEX
  8
0
 10
-1.54961296
 20
-15.07775128
  0
VERTEX
  8
0
 10
-2.30810935
 20
-14.98136880
  0
VERTEX
  8
0
 10
-3.05446263
 20
-14.84808395
  0
VERTEX
  8
0
 10
-3.78772054
 20
-14.67884900
  0
VERTEX
  8
0
 10
-4.50693078
 20
-14.47461624
  0
VERTEX
  8
0
 10
-5.21114109
 20
-14.23633794
  0
VERTEX
  8
0
 10
-5.89939917
 20
-13.96496639
  0
VERTEX
  8
0
 10
-6.57075276
 20
-13.66145386
  0
VERTEX
  8
0
 10
-7.22424956
 20
-13.32675264
  0
VERTEX
  8
0
 10
-7.85893731
 20
-12.96181501
  0
VERTEX
  8
0
 10
-8.47386372
 20
-12.56759323
  0
VERTEX
  8
0
 10
-9.06807651
 20
-12.14503960
  0
VERTEX
  8
0
 10
-9.64062340
 20
-11.69510640
  0
VERTEX
  8
0
 10
-10.19055212
 20
-11.21874590
  0
VERTEX
  8
0
 10
-10.71691038
 20
-10.71691038
  0
VERTEX
  8
0
 10
-11.21874590
 20
-10.19055212
  0
VERTEX
  8
0
 10
-11.69510640
 20
-9.64062340
  0
VERTEX
  8
0
 10
-12.14503960
 20
-9.06807651
  0
VERTEX
  8
0
 10
-12.56759323
 20
-8.47386372
  0
VERTEX
  8
0
 10
-12.96181501
 20
-7.85893731
  0
VERTEX
  8
0
 10
-13.32675264
 20
-7.22424956
  0
VERTEX
  8
0
 10
-13.66145386
 20
-6.57075276
  0
VERTEX
  8
0
 10
-13.96496639
 20
-5.89939917
  0
VERTEX
  8
0
 10
-14.23633794
 20
-5.21114109
  0
VERTEX
  8
0
 10
-14.47461624
 20
-4.50693078
  0
VERTEX
  8
0
 10
-14.67884900
 20
-3.78772054
  0
VERTEX
  8
0
 10
-14.84808395
 20
-3.05446263
  0
VERTEX
  8
0
 10
-14.98136880
 20
-2.30810935
  0
VERTEX
  8
0
 10
-15.07775128
 20
-1.54961296
  0
VERTEX
  8
0
 10
-15.15600000
 20
0.00000000
  0
SEQEND
  0
POLYLINE
  8
0
 66
   1
 39
0.000000
 70
    1
  0
VERTEX
  8
0
 10
50.76814122
 20
-29.31100000
  0
VERTEX
  8
0
 10
50.84907578
 20
-29.12004464
  0
VERTEX
  8
0
 10
50.88539666
 20
-28.90645177
  0
VERTEX
  8
0
 10
50.87803979
 20
-28.67105195
  0
VERTEX
  8
0
 10
50.82794115
 20
-28.41467577
  0
VERTEX
  8
0
 10
50.73603668
 20
-28.13815381
  0
VERTEX
  8
0
 10
50.60326233
 20
-27.84231665
  0
VERTEX
  8
0
 10
50.43055405
 20
-27.52799488
  0
VERTEX
  8
0
 10
50.21884781
 20
-27.19601906
  0
VERTEX
  8
0
 10
49.96907956
 20
-26.84721979
  0
VERTEX
  8
0
 10
49.68218524
 20
-26.48242765
  0
VERTEX
  8
0
 10
49.35910081
 20
-26.10247321
  0
VERTEX
  8
0
 10
49.00076222
 20
-25.70818705
  0
VERTEX
  8
0
 10
48.18206639
 20
-24.87994192
  0
VERTEX
  8
0
 10
47.23358538
 20
-24.00433691
  0
VERTEX
  8
0
 10
46.16280680
 20
-23.08801665
  0
VERTEX
  8
0
 10
44.97721828
 20
-22.13762580
  0
VERTEX
  8
0
 10
43.68430746
 20
-21.15980900
  0
VERTEX
  8
0
 10
42.29156195
 20
-20.16121089
  0
VERTEX
  8
0
 10
40.80646939
 20
-19.14847613
  0
VERTEX
  8
0
 10
39.23651739
 20
-18.12824937
  0
VERTEX
  8
0
 10
35.87198559
 20
-16.09189838
  0
VERTEX
  8
0
 10
34.13412606
 20
-15.11239107
  0
VERTEX
  8
0
 10
32.42618802
 20
-14.19630387
  0
VERTEX
  8
0
 10
30.75766972
 20
-13.34679894
  0
VERTEX
  8
0
 10
29.13806940
 20
-12.56703843
  0
VERTEX
  8
0
 10
27.57688533
 20
-11.86018449
  0
VERTEX
  8
0
 10
26.08361572
 20
-11.22939927
  0
VERTEX
  8
0
 10
24.66775884
 20
-10.67784493
  0
VERTEX
  8
0
 10
23.33881293
 20
-10.20868361
  0
VERTEX
  8
0
 10
22.10627624
 20
-9.82507746
  0
VERTEX
  8
0
 10
20.97964700
 20
-9.53018864
  0
VERTEX
  8
0
 10
20.45901588
 20
-9.41700140
  0
VERTEX
  8
0
 10
19.96842347
 20
-9.32717929
  0
VERTEX
  8
0
 10
19.50905704
 20
-9.26111760
  0
VERTEX
  8
0
 10
19.08210389
 20
-9.21921158
  0
VERTEX
  8
0
 10
18.68875128
 20
-9.20185650
  0
VERTEX
  8
0
 10
18.33018650
 20
-9.20944764
  0
VERTEX
  8
0
 10
18.00759683
 20
-9.24238026
  0
VERTEX
  8
0
 10
17.72216955
 20
-9.30104963
  0
VERTEX
  8
0
 10
17.47509195
 20
-9.38585102
  0
VERTEX
  8
0
 10
17.26755129
 20
-9.49717970
  0
VERTEX
  8
0
 10
16.97582996
 20
-9.80100000
  0
VERTEX
  8
0
 10
16.89489540
 20
-9.99195536
  0
VERTEX
  8
0
 10
16.85857453
 20
-10.20554823
  0
VERTEX
  8
0
 10
16.86593139
 20
-10.44094805
  0
VERTEX
  8
0
 10
16.91603004
 20
-10.69732423
  0
VERTEX
  8
0
 10
17.00793451
 20
-10.97384619
  0
VERTEX
  8
0
 10
17.14070886
 20
-11.26968335
  0
VERTEX
  8
0
 10
17.31341713
 20
-11.58400512
  0
VERTEX
  8
0
 10
17.52512337
 20
-11.91598094
  0
VERTEX
  8
0
 10
17.77489163
 20
-12.26478021
  0
VERTEX
  8
0
 10
18.06178595
 20
-12.62957235
  0
VERTEX
  8
0
 10
18.38487038
 20
-13.00952679
  0
VERTEX
  8
0
 10
18.74320896
 20
-13.40381295
  0
VERTEX
  8
0
 10
19.56190479
 20
-14.23205808
  0
VERTEX
  8
0
 10
20.51038581
 20
-15.10766309
  0
VERTEX
  8
0
 10
21.58116439
 20
-16.02398335
  0
VERTEX
  8
0
 10
22.76675290
 20
-16.97437420
  0
VERTEX
  8
0
 10
24.05966372
 20
-17.95219100
  0
VERTEX
  8
0
 10
25.45240923
 20
-18.95078911
  0
VERTEX
  8
0
 10
26.93750180
 20
-19.96352387
  0
VERTEX
  8
0
 10
28.50745380
 20
-20.98375063
  0
VERTEX
  8
0
 10
31.87198559
 20
-23.02010162
  0
VERTEX
  8
0
 10
33.60984513
 20
-23.99960893
  0
VERTEX
  8
0
 10
35.31778317
 20
-24.91569613
  0
VERTEX
  8
0
 10
36.98630147
 20
-25.76520106
  0
VERTEX
  8
0
 10
38.60590178
 20
-26.54496157
  0
VERTEX
  8
0
 10
40.16708586
 20
-27.25181551
  0
VERTEX
  8
0
 10
41.66035546
 20
-27.88260073
  0
VERTEX
  8
0
 10
43.07621234
 20
-28.43415507
  0
VERTEX
  8
0
 10
44.40515825
 20
-28.90331639
  0
VERTEX
  8
0
 10
45.63769495
 20
-29.28692254
  0
VERTEX
  8
0
 10
46.76432418
 20
-29.58181136
  0
VERTEX
  8
0
 10
47.28495530
 20
-29.69499860
  0
VERTEX
  8
0
 10
47.77554772
 20
-29.78482071
  0
VERTEX
  8
0
 10
48.23491414
 20
-29.85088240
  0
VERTEX
  8
0
 10
48.66186730
 20
-29.89278842
  0
VERTEX
  8
0
 10
49.05521991
 20
-29.91014350
  0
VERTEX
  8
0
 10
49.41378469
 20
-29.90255236
  0
VERTEX
  8
0
 10
49.73637435
 20
-29.86961974
  0
VERTEX
  8
0
 10
50.02180163
 20
-29.81095037
  0
VERTEX
  8
0
 10
50.26887924
 20
-29.72614898
  0
VERTEX
  8
0
 10
50.47641989
 20
-29.61482030
  0
VERTEX
  8
0
 10
50.76814122
 20
-29.31100000
  0
SEQEND
  0
POLYLINE
  8
0
 66
   1
 39
0.000000
 70
    1
  0
VERTEX
  8
0
 10
0.00000000
 20
58.62200000
  0
VERTEX
  8
0
 10
-0.20583947
 20
58.59661371
  0
VERTEX
  8
0
 10
-0.40897676
 20
58.52127207
  0
VERTEX
  8
0
 10
-0.60916056
 20
58.39720093
  0
VERTEX
  8
0
 10
-0.80613952
 20
58.22562614
  0
VERTEX
  8
0
 10
-0.99966232
 20
58.00777355
  0
VERTEX
  8
0
 10
-1.18947764
 20
57.74486902
  0
VERTEX
  8
0
 10
-1.37533415
 20
57.43813838
  0
VERTEX
  8
0
 10
-1.55698052
 20
57.08880749
  0
VERTEX
  8
0
 10
-1.73416542
 20
56.69810220
  0
VERTEX
  8
0
 10
-1.90663752
 20
56.26724836
  0
VERTEX
  8
0
 10
-2.07414550
 20
55.79747181
  0
VERTEX
  8
0
 10
-2.23643804
 20
55.28999841
  0
VERTEX
  8
0
 10
-2.54437144
 20
54.16686446
  0
VERTEX
  8
0
 10
-2.82842712
 20
52.90765330
  0
VERTEX
  8
0
 10
-3.08659446
 20
51.52217172
  0
VERTEX
  8
0
 10
-3.31686282
 20
50.02022652
  0
VERTEX
  8
0
 10
-3.51722160
 20
48.41162451
  0
VERTEX
  8
0
 10
-3.68566017
 20
46.70617246
  0
VERTEX
  8
0
 10
-3.82016792
 20
44.91367719
  0
VERTEX
  8
0
 10
-3.91873422
 20
43.04394550
  0
VERTEX
  8
0
 10
-4.00000000
 20
39.11200000
  0
VERTEX
  8
0
 10
-3.97934845
 20
37.11721583
  0
VERTEX
  8
0
 10
-3.91873422
 20
35.18005450
  0
VERTEX
  8
0
 10
-3.82016792
 20
33.31032281
  0
VERTEX
  8
0
 10
-3.68566017
 20
31.51782754
  0
VERTEX
  8
0
 10
-3.51722160
 20
29.81237549
  0
VERTEX
  8
0
 10
-3.31686282
 20
28.20377348
  0
VERTEX
  8
0
 10
-3.08659446
 20
26.70182828
  0
VERTEX
  8
0
 10
-2.82842712
 20
25.31634670
  0
VERTEX
  8
0
 10
-2.54437144
 20
24.05713554
  0
VERTEX
  8
0
 10
-2.23643804
 20
22.93400159
  0
VERTEX
  8
0
 10
-2.07414550
 20
22.42652819
  0
VERTEX
  8
0
 10
-1.90663752
 20
21.95675164
  0
VERTEX
  8
0
 10
-1.73416542
 20
21.52589780
  0
VERTEX
  8
0
 10
-1.55698052
 20
21.13519251
  0
VERTEX
  8
0
 10
-1.37533415
 20
20.78586162
  0
VERTEX
  8
0
 10
-1.18947764
 20
20.47913098
  0
VERTEX
  8
0
 10
-0.99966232
 20
20.21622645
  0
VERTEX
  8
0
 10
-0.80613952
 20
19.99837386
  0
VERTEX
  8
0
 10
-0.60916056
 20
19.82679907
  0
VERTEX
  8
0
 10
-0.40897676
 20
19.70272793
  0
VERTEX
  8
0
 10
0.00000000
 20
19.60200000
  0
VERTEX
  8
0
 10
0.20583947
 20
19.62738629
  0
VERTEX
  8
0
 10
0.40897676
 20
19.70272793
  0
VERTEX
  8
0
 10
0.60916056
 20
19.82679907
  0
VERTEX
  8
0
 10
0.80613952
 20
19.99837386
  0
VERTEX
  8
0
 10
0.99966232
 20
20.21622645
  0
VERTEX
  8
0
 10
1.18947764
 20
20.47913098
  0
VERTEX
  8
0
 10
1.37533415
 20
20.78586162
  0
VERTEX
  8
0
 10
1.55698052
 20
21.13519251
  0
VERTEX
  8
0
 10
1.73416542
 20
21.52589780
  0
VERTEX
  8
0
 10
1.90663752
 20
21.95675164
  0
VERTEX
  8
0
 10
2.07414550
 20
22.42652819
  0
VERTEX
  8
0
 10
2.23643804
 20
22.93400159
  0
VERTEX
  8
0
 10
2.54437144
 20
24.05713554
  0
VERTEX
  8
0
 10
2.82842712
 20
25.31634670
  0
VERTEX
  8
0
 10
3.08659446
 20
26.70182828
  0
VERTEX
  8
0
 10
3.31686282
 20
28.20377348
  0
VERTEX
  8
0
 10
3.51722160
 20
29.81237549
  0
VERTEX
  8
0
 10
3.68566017
 20
31.51782754
  0
VERTEX
  8
0
 10
3.82016792
 20
33.31032281
  0
VERTEX
  8
0
 10
3.91873422
 20
35.18005450
  0
VERTEX
  8
0
 10
4.00000000
 20
39.11200000
  0
VERTEX
  8
0
 10
3.97934845
 20
41.10678417
  0
VERTEX
  8
0
 10
3.91873422
 20
43.04394550
  0
VERTEX
  8
0
 10
3.82016792
 20
44.91367719
  0
VERTEX
  8
0
 10
3.68566017
 20
46.70617246
  0
VERTEX
  8
0
 10
3.51722160
 20
48.41162451
  0
VERTEX
  8
0
 10
3.31686282
 20
50.02022652
  0
VERTEX
  8
0
 10
3.08659446
 20
51.52217172
  0
VERTEX
  8
0
 10
2.82842712
 20
52.90765330
  0
VERTEX
  8
0
 10
2.54437144
 20
54.16686446
  0
VERTEX
  8
0
 10
2.23643804
 20
55.28999841
  0
VERTEX
  8
0
 10
2.07414550
 20
55.79747181
  0
VERTEX
  8
0
 10
1.90663752
 20
56.26724836
  0
VERTEX
  8
0
 10
1.73416542
 20
56.69810220
  0
VERTEX
  8
0
 10
1.55698052
 20
57.08880749
  0
VERTEX
  8
0
 10
1.37533415
 20
57.43813838
  0
VERTEX
  8
0
 10
1.18947764
 20
57.74486902
  0
VERTEX
  8
0
 10
0.99966232
 20
58.00777355
  0
VERTEX
  8
0
 10
0.80613952
 20
58.22562614
  0
VERTEX
  8
0
 10
0.60916056
 20
58.39720093
  0
VERTEX
  8
0
 10
0.40897676
 20
58.52127207
  0
VERTEX
  8
0
 10
0.00000000
 20
58.62200000
  0
SEQEND
  0
POLYLINE
  8
0
 66
   1
 39
0.000000
 70
    1
  0
VERTEX
  8
0
 10
29.31100000
 20
50.76814122
  0
VERTEX
  8
0
 10
29.12004464
 20
50.84907578
  0
VERTEX
  8
0
 10
28.90645177
 20
50.88539666
  0
VERTEX
  8
0
 10
28.67105195
 20
50.87803979
  0
VERTEX
  8
0
 10
28.41467577
 20
50.82794115
  0
VERTEX
  8
0
 10
28.13815381
 20
50.73603668
  0
VERTEX
  8
0
 10
27.84231665
 20
50.60326233
  0
VERTEX
  8
0
 10
27.52799488
 20
50.43055405
  0
VERTEX
  8
0
 10
27.19601906
 20
50.21884781
  0
VERTEX
  8
0
 10
26.84721979
 20
49.96907956
  0
VERTEX
  8
0
 10
26.48242765
 20
49.68218524
  0
VERTEX
  8
0
 10
26.10247321
 20
49.35910081
  0
VERTEX
  8
0
 10
25.70818705
 20
49.00076222
  0
VERTEX
  8
0
 10
24.87994192
 20
48.18206639
  0
VERTEX
  8
0
 10
24.00433691
 20
47.23358538
  0
VERTEX
  8
0
 10
23.08801665
 20
46.16280680
  0
VERTEX
  8
0
 10
22.13762580
 20
44.97721828
  0
VERTEX
  8
0
 10
21.15980900
 20
43.68430746
  0
VERTEX
  8
0
 10
20.16121089
 20
42.29156195
  0
VERTEX
  8
0
 10
19.14847613
 20
40.80646939
  0
VERTEX
  8
0
 10
18.12824937
 20
39.23651739
  0
VERTEX
  8
0
 10
16.09189838
 20
35.87198559
  0
VERTEX
  8
0
 10
15.11239107
 20
34.13412606
  0
VERTEX
  8
0
 10
14.19630387
 20
32.42618802
  0
VERTEX
  8
0
 10
13.34679894
 20
30.75766972
  0
VERTEX
  8
0
 10
12.56703843
 20
29.13806940
  0
VERTEX
  8
0
 10
11.86018449
 20
27.57688533
  0
VERTEX
  8
0
 10
11.22939927
 20
26.08361572
  0
VERTEX
  8
0
 10
10.67784493
 20
24.66775884
  0
VERTEX
  8
0
 10
10.20868361
 20
23.33881293
  0
VERTEX
  8
0
 10
9.82507746
 20
22.10627624
  0
VERTEX
  8
0
 10
9.53018864
 20
20.97964700
  0
VERTEX
  8
0
 10
9.41700140
 20
20.45901588
  0
VERTEX
  8
0
 10
9.32717929
 20
19.96842347
  0
VERTEX
  8
0
 10
9.26111760
 20
19.50905704
  0
VERTEX
  8
0
 10
9.21921158
 20
19.08210389
  0
VERTEX
  8
0
 10
9.20185650
 20
18.68875128
  0
VERTEX
  8
0
 10
9.20944764
 20
18.33018650
  0
VERTEX
  8
0
 10
9.24238026
 20
18.00759683
  0
VERTEX
  8
0
 10
9.30104963
 20
17.72216955
  0
VERTEX
  8
0
 10
9.38585102
 20
17.47509195
  0
VERTEX
  8
0
 10
9.49717970
 20
17.26755129
  0
VERTEX
  8
0
 10
9.80100000
 20
16.97582996
  0
VERTEX
  8
0
 10
9.99195536
 20
16.89489540
  0
VERTEX
  8
0
 10
10.20554823
 20
16.85857453
  0
VERTEX
  8
0
 10
10.44094805
 20
16.86593139
  0
VERTEX
  8
0
 10
10.69732423
 20
16.91603004
  0
VERTEX
  8
0
 10
10.97384619
 20
17.00793451
  0
VERTEX
  8
0
 10
11.26968335
 20
17.14070886
  0
VERTEX
  8
0
 10
11.58400512
 20
17.31341713
  0
VERTEX
  8
0
 10
11.91598094
 20
17.52512337
  0
VERTEX
  8
0
 10
12.26478021
 20
17.77489163
  0
VERTEX
  8
0
 10
12.62957235
 20
18.06178595
  0
VERTEX
  8
0
 10
13.00952679
 20
18.38487038
  0
VERTEX
  8
0
 10
13.40381295
 20
18.74320896
  0
VERTEX
  8
0
 10
14.23205808
 20
19.56190479
  0
VERTEX
  8
0
 10
15.10766309
 20
20.51038581
  0
VERTEX
  8
0
 10
16.02398335
 20
21.58116439
  0
VERTEX
  8
0
 10
16.97437420
 20
22.76675290
  0
VERTEX
  8
0
 10
17.95219100
 20
24.05966372
  0
VERTEX
  8
0
 10
18.95078911
 20
25.45240923
  0
VERTEX
  8
0
 10
19.96352387
 20
26.93750180
  0
VERTEX
  8
0
 10
20.98375063
 20
28.50745380
  0
VERTEX
  8
0
 10
23.02010162
 20
31.87198559
  0
VERTEX
  8
0
 10
23.99960893
 20
33.60984513
  0
VERTEX
  8
0
 10
24.91569613
 20
35.31778317
  0
VERTEX
  8
0
 10
25.76520106
 20
36.98630147
  0
VERTEX
  8
0
 10
26.54496157
 20
38.60590178
  0
VERTEX
  8
0
 10
27.25181551
 20
40.16708586
  0
VERTEX
  8
0
 10
27.88260073
 20
41.66035546
  0
VERTEX
  8
0
 10
28.43415507
 20
43.07621234
  0
VERTEX
  8
0
 10
28.90331639
 20
44.40515825
  0
VERTEX
  8
0
 10
29.28692254
 20
45.63769495
  0
VERTEX
  8
0
 10
29.58181136
 20
46.76432418
  0
VERTEX
  8
0
 10
29.69499860
 20
47.28495530
  0
VERTEX
  8
0
 10
29.78482071
 20
47.77554772
  0
VERTEX
  8
0
 10
29.85088240
 20
48.23491414
  0
VERTEX
  8
0
 10
29.89278842
 20
48.66186730
  0
VERTEX
  8
0
 10
29.91014350
 20
49.05521991
  0
VERTEX
  8
0
 10
29.90255236
 20
49.41378469
  0
VERTEX
  8
0
 10
29.86961974
 20
49.73637435
  0
VERTEX
  8
0
 10
29.81095037
 20
50.02180163
  0
VERTEX
  8
0
 10
29.72614898
 20
50.26887924
  0
VERTEX
  8
0
 10
29.61482030
 20
50.47641989
  0
VERTEX
  8
0
 10
29.31100000
 20
50.76814122
  0
SEQEND
  0
POLYLINE
  8
0
 66
   1
 39
0.000000
 70
    1
  0
VERTEX
  8
0
 10
50.76814122
 20
29.31100000
  0
VERTEX
  8
0
 10
50.64323631
 20
29.47656906
  0
VERTEX
  8
0
 10
50.47641989
 20
29.61482030
  0
VERTEX
  8
0
 10
50.26887924
 20
29.72614898
  0
VERTEX
  8
0
 10
50.02180163
 20
29.81095037
  0
VERTEX
  8
0
 10
49.73637435
 20
29.86961974
  0
VERTEX
  8
0
 10
49.41378469
 20
29.90255236
  0
VERTEX
  8
0
 10
49.05521991
 20
29.91014350
  0
VERTEX
  8
0
 10
48.66186730
 20
29.89278842
  0
VERTEX
  8
0
 10
48.23491414
 20
29.85088240
  0
VERTEX
  8
0
 10
47.77554772
 20
29.78482071
  0
VERTEX
  8
0
 10
47.28495530
 20
29.69499860
  0
VERTEX
  8
0
 10
46.76432418
 20
29.58181136
  0
VERTEX
  8
0
 10
45.63769495
 20
29.28692254
  0
VERTEX
  8
0
 10
44.40515825
 20
28.90331639
  0
VERTEX
  8
0
 10
43.07621234
 20
28.43415507
  0
VERTEX
  8
0
 10
41.66035546
 20
27.88260073
  0
VERTEX
  8
0
 10
40.16708586
 20
27.25181551
  0
VERTEX
  8
0
 10
38.60590178
 20
26.54496157
  0
VERTEX
  8
0
 10
36.98630147
 20
25.76520106
  0
VERTEX
  8
0
 10
35.31778317
 20
24.91569613
  0
VERTEX
  8
0
 10
31.87198559
 20
23.02010162
  0
VERTEX
  8
0
 10
30.15477761
 20
22.00482477
  0
VERTEX
  8
0
 10
28.50745380
 20
20.98375063
  0
VERTEX
  8
0
 10
26.93750180
 20
19.96352387
  0
VERTEX
  8
0
 10
25.45240923
 20
18.95078911
  0
VERTEX
  8
0
 10
24.05966372
 20
17.95219100
  0
VERTEX
  8
0
 10
22.76675290
 20
16.97437420
  0
VERTEX
  8
0
 10
21.58116439
 20
16.02398335
  0
VERTEX
  8
0
 10
20.51038581
 20
15.10766309
  0
VERTEX
  8
0
 10
19.56190479
 20
14.23205808
  0
VERTEX
  8
0
 10
18.74320896
 20
13.40381295
  0
VERTEX
  8
0
 10
18.38487038
 20
13.00952679
  0
VERTEX
  8
0
 10
18.06178595
 20
12.62957235
  0
VERTEX
  8
0
 10
17.77489163
 20
12.26478021
  0
VERTEX
  8
0
 10
17.52512337
 20
11.91598094
  0
VERTEX
  8
0
 10
17.31341713
 20
11.58400512
  0
VERTEX
  8
0
 10
17.14070886
 20
11.26968335
  0
VERTEX
  8
0
 10
17.00793451
 20
10.97384619
  0
VERTEX
  8
0
 10
16.91603004
 20
10.69732423
  0
VERTEX
  8
0
 10
16.86593139
 20
10.44094805
  0
VERTEX
  8
0
 10
16.85857453
 20
10.20554823
  0
VERTEX
  8
0
 10
16.97582996
 20
9.80100000
  0
VERTEX
  8
0
 10
17.10073487
 20
9.63543094
  0
VERTEX
  8
0
 10
17.26755129
 20
9.49717970
  0
VERTEX
  8
0
 10
17.47509195
 20
9.38585102
  0
VERTEX
  8
0
 10
17.72216955
 20
9.30104963
  0
VERTEX
  8
0
 10
18.00759683
 20
9.24238026
  0
VERTEX
  8
0
 10
18.33018650
 20
9.20944764
  0
VERTEX
  8
0
 10
18.68875128
 20
9.20185650
  0
VERTEX
  8
0
 10
19.08210389
 20
9.21921158
  0
VERTEX
  8
0
 10
19.50905704
 20
9.26111760
  0
VERTEX
  8
0
 10
19.96842347
 20
9.32717929
  0
VERTEX
  8
0
 10
20.45901588
 20
9.41700140
  0
VERTEX
  8
0
 10
20.97964700
 20
9.53018864
  0
VERTEX
  8
0
 10
22.10627624
 20
9.82507746
  0
VERTEX
  8
0
 10
23.33881293
 20
10.20868361
  0
VERTEX
  8
0
 10
24.66775884
 20
10.67784493
  0
VERTEX
  8
0
 10
26.08361572
 20
11.22939927
  0
VERTEX
  8
0
 10
27.57688533
 20
11.86018449
  0
VERTEX
  8
0
 10
29.13806940
 20
12.56703843
  0
VERTEX
  8
0
 10
30.75766972
 20
13.34679894
  0
VERTEX
  8
0
 10
32.42618802
 20
14.19630387
  0
VERTEX
  8
0
 10
35.87198559
 20
16.09189838
  0
VERTEX
  8
0
 10
37.58919358
 20
17.10717523
  0
VERTEX
  8
0
 10
39.23651739
 20
18.12824937
  0
VERTEX
  8
0
 10
40.80646939
 20
19.14847613
  0
VERTEX
  8
0
 10
42.29156195
 20
20.16121089
  0
VERTEX
  8
0
 10
43.68430746
 20
21.15980900
  0
VERTEX
  8
0
 10
44.97721828
 20
22.13762580
  0
VERTEX
  8
0
 10
46.16280680
 20
23.08801665
  0
VERTEX
  8
0
 10
47.23358538
 20
24.00433691
  0
VERTEX
  8
0
 10
48.18206639
 20
24.87994192
  0
VERTEX
  8
0
 10
49.00076222
 20
25.70818705
  0
VERTEX
  8
0
 10
49.35910081
 20
26.10247321
  0
VERTEX
  8
0
 10
49.68218524
 20
26.48242765
  0
VERTEX
  8
0
 10
49.96907956
 20
26.84721979
  0
VERTEX
  8
0
 10
50.21884781
 20
27.19601906
  0
VERTEX
  8
0
 10
50.43055405
 20
27.52799488
  0
VERTEX
  8
0
 10
50.60326233
 20
27.84231665
  0
VERTEX
  8
0
 10
50.73603668
 20
28.13815381
  0
VERTEX
  8
0
 10
50.82794115
 20
28.41467577
  0
VERTEX
  8
0
 10
50.87803979
 20
28.67105195
  0
VERTEX
  8
0
 10
50.88539666
 20
28.90645177
  0
VERTEX
  8
0
 10
50.76814122
 20
29.31100000
  0
SEQEND
  0
POLYLINE
  8
0
 66
   1
 39
0.000000
 70
    1
  0
VERTEX
  8
0
 10
58.62200000
 20
0.00000000
  0
VERTEX
  8
0
 10
58.59661371
 20
0.20583947
  0
VERTEX
  8
0
 10
58.52127207
 20
0.40897676
  0
VERTEX
  8
0
 10
58.39720093
 20
0.60916056
  0
VERTEX
  8
0
 10
58.22562614
 20
0.80613952
  0
VERTEX
  8
0
 10
58.00777355
 20
0.99966232
  0
VERTEX
  8
0
 10
57.74486902
 20
1.18947764
  0
VERTEX
  8
0
 10
57.43813838
 20
1.37533415
  0
VERTEX
  8
0
 10
57.08880749
 20
1.55698052
  0
VERTEX
  8
0
 10
56.69810220
 20
1.73416542
  0
VERTEX
  8
0
 10
56.26724836
 20
1.90663752
  0
VERTEX
  8
0
 10
55.79747181
 20
2.07414550
  0
VERTEX
  8
0
 10
55.28999841
 20
2.23643804
  0
VERTEX
  8
0
 10
54.16686446
 20
2.54437144
  0
VERTEX
  8
0
 10
52.90765330
 20
2.82842712
  0
VERTEX
  8
0
 10
51.52217172
 20
3.08659446
  0
VERTEX
  8
0
 10
50.02022652
 20
3.31686282
  0
VERTEX
  8
0
 10
48.41162451
 20
3.51722160
  0
VERTEX
  8
0
 10
46.70617246
 20
3.68566017
  0
VERTEX
  8
0
 10
44.91367719
 20
3.82016792
  0
VERTEX
  8
0
 10
43.04394550
 20
3.91873422
  0
VERTEX
  8
0
 10
39.11200000
 20
4.00000000
  0
VERTEX
  8
0
 10
37.11721583
 20
3.97934845
  0
VERTEX
  8
0
 10
35.18005450
 20
3.91873422
  0
VERTEX
  8
0
 10
33.31032281
 20
3.82016792
  0
VERTEX
  8
0
 10
31.51782754
 20
3.68566017
  0
VERTEX
  8
0
 10
29.81237549
 20
3.51722160
  0
VERTEX
  8
0
 10
28.20377348
 20
3.31686282
  0
VERTEX
  8
0
 10
26.70182828
 20
3.08659446
  0
VERTEX
  8
0
 10
25.31634670
 20
2.82842712
  0
VERTEX
  8
0
 10
24.05713554
 20
2.54437144
  0
VERTEX
  8
0
 10
22.93400159
 20
2.23643804
  0
VERTEX
  8
0
 10
22.42652819
 20
2.07414550
  0
VERTEX
  8
0
 10
21.95675164
 20
1.90663752
  0
VERTEX
  8
0
 10
21.52589780
 20
1.73416542
  0
VERTEX
  8
0
 10
21.13519251
 20
1.55698052
  0
VERTEX
  8
0
 10
20.78586162
 20
1.37533415
  0
VERTEX
  8
0
 10
20.47913098
 20
1.18947764
  0
VERTEX
  8
0
 10
20.21622645
 20
0.99966232
  0
VERTEX
  8
0
 10
19.99837386
 20
0.80613952
  0
VERTEX
  8
0
 10
19.82679907
 20
0.60916056
  0
VERTEX
  8
0
 10
19.70272793
 20
0.40897676
  0
VERTEX
  8
0
 10
19.60200000
 20
0.00000000
  0
VERTEX
  8
0
 10
19.62738629
 20
-0.20583947
  0
VERTEX
  8
0
 10
19.70272793
 20
-0.40897676
  0
VERTEX
  8
0
 10
19.82679907
 20
-0.60916056
  0
VERTEX
  8
0
 10
19.99837386
 20
-0.80613952
  0
VERTEX
  8
0
 10
20.21622645
 20
-0.99966232
  0
VERTEX
  8
0
 10
20.47913098
 20
-1.18947764
  0
VERTEX
  8
0
 10
20.78586162
 20
-1.37533415
  0
VERTEX
  8
0
 10
21.13519251
 20
-1.55698052
  0
VERTEX
  8
0
 10
21.52589780
 20
-1.73416542
  0
VERTEX
  8
0
 10
21.95675164
 20
-1.90663752
  0
VERTEX
  8
0
 10
22.42652819
 20
-2.07414550
  0
VERTEX
  8
0
 10
22.93400159
 20
-2.23643804
  0
VERTEX
  8
0
 10
24.05713554
 20
-2.54437144
  0
VERTEX
  8
0
 10
25.31634670
 20
-2.82842712
  0
VERTEX
  8
0
 10
26.70182828
 20
-3.08659446
  0
VERTEX
  8
0
 10
28.20377348
 20
-3.31686282
  0
VERTEX
  8
0
 10
29.81237549
 20
-3.51722160
  0
VERTEX
  8
0
 10
31.51782754
 20
-3.68566017
  0
VERTEX
  8
0
 10
33.31032281
 20
-3.82016792
  0
VERTEX
  8
0
 10
35.18005450
 20
-3.91873422
  0
VERTEX
  8
0
 10
39.11200000
 20
-4.00000000
  0
VERTEX
  8
0
 10
41.10678417
 20
-3.97934845
  0
VERTEX
  8
0
 10
43.04394550
 20
-3.91873422
  0
VERTEX
  8
0
 10
44.91367719
 20
-3.82016792
  0
VERTEX
  8
0
 10
46.70617246
 20
-3.68566017
  0
VERTEX
  8
0
 10
48.41162451
 20
-3.51722160
  0
VERTEX
  8
0
 10
50.02022652
 20
-3.31686282
  0
VERTEX
  8
0
 10
51.52217172
 20
-3.08659446
  0
VERTEX
  8
0
 10
52.90765330
 20
-2.82842712
  0
VERTEX
  8
0
 10
54.16686446
 20
-2.54437144
  0
VERTEX
  8
0
 10
55.28999841
 20
-2.23643804
  0
VERTEX
  8
0
 10
55.79747181
 20
-2.07414550
  0
VERTEX
  8
0
 10
56.26724836
 20
-1.90663752
  0
VERTEX
  8
0
 10
56.69810220
 20
-1.73416542
  0
VERTEX
  8
0
 10
57.08880749
 20
-1.55698052
  0
VERTEX
  8
0
 10
57.43813838
 20
-1.37533415
  0
VERTEX
  8
0
 10
57.74486902
 20
-1.18947764
  0
VERTEX
  8
0
 10
58.00777355
 20
-0.99966232
  0
VERTEX
  8
0
 10
58.22562614
 20
-0.80613952
  0
VERTEX
  8
0
 10
58.39720093
 20
-0.60916056
  0
VERTEX
  8
0
 10
58.52127207
 20
-0.40897676
  0
VERTEX
  8
0
 10
58.62200000
 20
0.00000000
  0
SEQEND
  0
POLYLINE
  8
0
 66
   1
 39
0.000000
 70
    1
  0
VERTEX
  8
0
 10
29.31100000
 20
-50.76814122
  0
VERTEX
  8
0
 10
29.47656906
 20
-50.64323631
  0
VERTEX
  8
0
 10
29.61482030
 20
-50.47641989
  0
VERTEX
  8
0
 10
29.72614898
 20
-50.26887924
  0
VERTEX
  8
0
 10
29.81095037
 20
-50.02180163
  0
VERTEX
  8
0
 10
29.86961974
 20
-49.73637435
  0
VERTEX
  8
0
 10
29.90255236
 20
-49.41378469
  0
VERTEX
  8
0
 10
29.91014350
 20
-49.05521991
  0
VERTEX
  8
0
 10
29.89278842
 20
-48.66186730
  0
VERTEX
  8
0
 10
29.85088240
 20
-48.23491414
  0
VERTEX
  8
0
 10
29.78482071
 20
-47.77554772
  0
VERTEX
  8
0
 10
29.69499860
 20
-47.28495530
  0
VERTEX
  8
0
 10
29.58181136
 20
-46.76432418
  0
VERTEX
  8
0
 10
29.28692254
 20
-45.63769495
  0
VERTEX
  8
0
 10
28.90331639
 20
-44.40515825
  0
VERTEX
  8
0
 10
28.43415507
 20
-43.07621234
  0
VERTEX
  8
0
 10
27.88260073
 20
-41.66035546
  0
VERTEX
  8
0
 10
27.25181551
 20
-40.16708586
  0
VERTEX
  8
0
 10
26.54496157
 20
-38.60590178
  0
VERTEX
  8
0
 10
25.76520106
 20
-36.98630147
  0
VERTEX
  8
0
 10
24.91569613
 20
-35.31778317
  0
VERTEX
  8
0
 10
23.02010162
 20
-31.87198559
  0
VERTEX
  8
0
 10
22.00482477
 20
-30.15477761
  0
VERTEX
  8
0
 10
20.98375063
 20
-28.50745380
  0
VERTEX
  8
0
 10
19.96352387
 20
-26.93750180
  0
VERTEX
  8
0
 10
18.95078911
 20
-25.45240923
  0
VERTEX
  8
0
 10
17.95219100
 20
-24.05966372
  0
VERTEX
  8
0
 10
16.97437420
 20
-22.76675290
  0
VERTEX
  8
0
 10
16.02398335
 20
-21.58116439
  0
VERTEX
  8
0
 10
15.10766309
 20
-20.51038581
  0
VERTEX
  8
0
 10
14.23205808
 20
-19.56190479
  0
VERTEX
  8
0
 10
13.40381295
 20
-18.74320896
  0
VERTEX
  8
0
 10
13.00952679
 20
-18.38487038
  0
VERTEX
  8
0
 10
12.62957235
 20
-18.06178595
  0
VERTEX
  8
0
 10
12.26478021
 20
-17.77489163
  0
VERTEX
  8
0
 10
11.91598094
 20
-17.52512337
  0
VERTEX
  8
0
 10
11.58400512
 20
-17.31341713
  0
VERTEX
  8
0
 10
11.26968335
 20
-17.14070886
  0
VERTEX
  8
0
 10
10.97384619
 20
-17.00793451
  0
VERTEX
  8
0
 10
10.69732423
 20
-16.91603004
  0
VERTEX
  8
0
 10
10.44094805
 20
-16.86593139
  0
VERTEX
  8
0
 10
10.20554823
 20
-16.85857453
  0
VERTEX
  8
0
 10
9.80100000
 20
-16.97582996
  0
VERTEX
  8
0
 10
9.63543094
 20
-17.10073487
  0
VERTEX
  8
0
 10
9.49717970
 20
-17.26755129
  0
VERTEX
  8
0
 10
9.38585102
 20
-17.47509195
  0
VERTEX
  8
0
 10
9.30104963
 20
-17.72216955
  0
VERTEX
  8
0
 10
9.24238026
 20
-18.00759683
  0
VERTEX
  8
0
 10
9.20944764
 20
-18.33018650
  0
VERTEX
  8
0
 10
9.20185650
 20
-18.68875128
  0
VERTEX
  8
0
 10
9.21921158
 20
-19.08210389
  0
VERTEX
  8
0
 10
9.26111760
 20
-19.50905704
  0
VERTEX
  8
0
 10
9.32717929
 20
-19.96842347
  0
VERTEX
  8
0
 10
9.41700140
 20
-20.45901588
  0
VERTEX
  8
0
 10
9.53018864
 20
-20.97964700
  0
VERTEX
  8
0
 10
9.82507746
 20
-22.10627624
  0
VERTEX
  8
0
 10
10.20868361
 20
-23.33881293
  0
VERTEX
  8
0
 10
10.67784493
 20
-24.66775884
  0
VERTEX
  8
0
 10
11.22939927
 20
-26.08361572
  0
VERTEX
  8
0
 10
11.86018449
 20
-27.57688533
  0
VERTEX
  8
0
 10
12.56703843
 20
-29.13806940
  0
VERTEX
  8
0
 10
13.34679894
 20
-30.75766972
  0
VERTEX
  8
0
 10
14.19630387
 20
-32.42618802
  0
VERTEX
  8
0
 10
16.09189838
 20
-35.87198559
  0
VERTEX
  8
0
 10
17.10717523
 20
-37.58919358
  0
VERTEX
  8
0
 10
18.12824937
 20
-39.23651739
  0
VERTEX
  8
0
 10
19.14847613
 20
-40.80646939
  0
VERTEX
  8
0
 10
20.16121089
 20
-42.29156195
  0
VERTEX
  8
0
 10
21.15980900
 20
-43.68430746
  0
VERTEX
  8
0
 10
22.13762580
 20
-44.97721828
  0
VERTEX
  8
0
 10
23.08801665
 20
-46.16280680
  0
VERTEX
  8
0
 10
24.00433691
 20
-47.23358538
  0
VERTEX
  8
0
 10
24.87994192
 20
-48.18206639
  0
VERTEX
  8
0
 10
25.70818705
 20
-49.00076222
  0
VERTEX
  8
0
 10
26.10247321
 20
-49.35910081
  0
VERTEX
  8
0
 10
26.48242765
 20
-49.68218524
  0
VERTEX
  8
0
 10
26.84721979
 20
-49.96907956
  0
VERTEX
  8
0
 10
27.19601906
 20
-50.21884781
  0
VERTEX
  8
0
 10
27.52799488
 20
-50.43055405
  0
VERTEX
  8
0
 10
27.84231665
 20
-50.60326233
  0
VERTEX
  8
0
 10
28.13815381
 20
-50.73603668
  0
VERTEX
  8
0
 10
28.41467577
 20
-50.82794115
  0
VERTEX
  8
0
 10
28.67105195
 20
-50.87803979
  0
VERTEX
  8
0
 10
28.90645177
 20
-50.88539666
  0
VERTEX
  8
0
 10
29.31100000
 20
-50.76814122
  0
SEQEND
  0
POLYLINE
  8
0
 66
   1
 39
0.000000
 70
    1
  0
VERTEX
  8
0
 10
0.00000000
 20
-58.62200000
  0
VERTEX
  8
0
 10
0.20583947
 20
-58.59661371
  0
VERTEX
  8
0
 10
0.40897676
 20
-58.52127207
  0
VERTEX
  8
0
 10
0.60916056
 20
-58.39720093
  0
VERTEX
  8
0
 10
0.80613952
 20
-58.22562614
  0
VERTEX
  8
0
 10
0.99966232
 20
-58.00777355
  0
VERTEX
  8
0
 10
1.18947764
 20
-57.74486902
  0
VERTEX
  8
0
 10
1.37533415
 20
-57.43813838
  0
VERTEX
  8
0
 10
1.55698052
 20
-57.08880749
  0
VERTEX
  8
0
 10
1.73416542
 20
-56.69810220
  0
VERTEX
  8
0
 10
1.90663752
 20
-56.26724836
  0
VERTEX
  8
0
 10
2.07414550
 20
-55.79747181
  0
VERTEX
  8
0
 10
2.23643804
 20
-55.28999841
  0
VERTEX
  8
0
 10
2.54437144
 20
-54.16686446
  0
VERTEX
  8
0
 10
2.82842712
 20
-52.90765330
  0
VERTEX
  8
0
 10
3.08659446
 20
-51.52217172
  0
VERTEX
  8
0
 10
3.31686282
 20
-50.02022652
  0
VERTEX
  8
0
 10
3.51722160
 20
-48.41162451
  0
VERTEX
  8
0
 10
3.68566017
 20
-46.70617246
  0
VERTEX
  8
0
 10
3.82016792
 20
-44.91367719
  0
VERTEX
  8
0
 10
3.91873422
 20
-43.04394550
  0
VERTEX
  8
0
 10
4.00000000
 20
-39.11200000
  0
VERTEX
  8
0
 10
3.97934845
 20
-37.11721583
  0
VERTEX
  8
0
 10
3.91873422
 20
-35.18005450
  0
VERTEX
  8
0
 10
3.82016792
 20
-33.31032281
  0
VERTEX
  8
0
 10
3.68566017
 20
-31.51782754
  0
VERTEX
  8
0
 10
3.51722160
 20
-29.81237549
  0
VERTEX
  8
0
 10
3.31686282
 20
-28.20377348
  0
VERTEX
  8
0
 10
3.08659446
 20
-26.70182828
  0
VERTEX
  8
0
 10
2.82842712
 20
-25.31634670
  0
VERTEX
  8
0
 10
2.54437144
 20
-24.05713554
  0
VERTEX
  8
0
 10
2.23643804
 20
-22.93400159
  0
VERTEX
  8
0
 10
2.07414550
 20
-22.42652819
  0
VERTEX
  8
0
 10
1.90663752
 20
-21.95675164
  0
VERTEX
  8
0
 10
1.73416542
 20
-21.52589780
  0
VERTEX
  8
0
 10
1.55698052
 20
-21.13519251
  0
VERTEX
  8
0
 10
1.37533415
 20
-20.78586162
  0
VERTEX
  8
0
 10
1.18947764
 20
-20.47913098
  0
VERTEX
  8
0
 10
0.99966232
 20
-20.21622645
  0
VERTEX
  8
0
 10
0.80613952
 20
-19.99837386
  0
VERTEX
  8
0
 10
0.60916056
 20
-19.82679907
  0
VERTEX
  8
0
 10
0.40897676
 20
-19.70272793
  0
VERTEX
  8
0
 10
0.00000000
 20
-19.60200000
  0
VERTEX
  8
0
 10
-0.20583947
 20
-19.62738629
  0
VERTEX
  8
0
 10
-0.40897676
 20
-19.70272793
  0
VERTEX
  8
0
 10
-0.60916056
 20
-19.82679907
  0
VERTEX
  8
0
 10
-0.80613952
 20
-19.99837386
  0
VERTEX
  8
0
 10
-0.99966232
 20
-20.21622645
  0
VERTEX
  8
0
 10
-1.18947764
 20
-20.47913098
  0
VERTEX
  8
0
 10
-1.37533415
 20
-20.78586162
  0
VERTEX
  8
0
 10
-1.55698052
 20
-21.13519251
  0
VERTEX
  8
0
 10
-1.73416542
 20
-21.52589780
  0
VERTEX
  8
0
 10
-1.90663752
 20
-21.95675164
  0
VERTEX
  8
0
 10
-2.07414550
 20
-22.42652819
  0
VERTEX
  8
0
 10
-2.23643804
 20
-22.93400159
  0
VERTEX
  8
0
 10
-2.54437144
 20
-24.05713554
  0
VERTEX
  8
0
 10
-2.82842712
 20
-25.31634670
  0
VERTEX
  8
0
 10
-3.08659446
 20
-26.70182828
  0
VERTEX
  8
0
 10
-3.31686282
 20
-28.20377348
  0
VERTEX
  8
0
 10
-3.51722160
 20
-29.81237549
  0
VERTEX
  8
0
 10
-3.68566017
 20
-31.51782754
  0
VERTEX
  8
0
 10
-3.82016792
 20
-33.31032281
  0
VERTEX
  8
0
 10
-3.91873422
 20
-35.18005450
  0
VERTEX
  8
0
 10
-4.00000000
 20
-39.11200000
  0
VERTEX
  8
0
 10
-3.97934845
 20
-41.10678417
  0
VERTEX
  8
0
 10
-3.91873422
 20
-43.04394550
  0
VERTEX
  8
0
 10
-3.82016792
 20
-44.91367719
  0
VERTEX
  8
0
 10
-3.68566017
 20
-46.70617246
  0
VERTEX
  8
0
 10
-3.51722160
 20
-48.41162451
  0
VERTEX
  8
0
 10
-3.31686282
 20
-50.02022652
  0
VERTEX
  8
0
 10
-3.08659446
 20
-51.52217172
  0
VERTEX
  8
0
 10
-2.82842712
 20
-52.90765330
  0
VERTEX
  8
0
 10
-2.54437144
 20
-54.16686446
  0
VERTEX
  8
0
 10
-2.23643804
 20
-55.28999841
  0
VERTEX
  8
0
 10
-2.07414550
 20
-55.79747181
  0
VERTEX
  8
0
 10
-1.90663752
 20
-56.26724836
  0
VERTEX
  8
0
 10
-1.73416542
 20
-56.69810220
  0
VERTEX
  8
0
 10
-1.55698052
 20
-57.08880749
  0
VERTEX
  8
0
 10
-1.37533415
 20
-57.43813838
  0
VERTEX
  8
0
 10
-1.18947764
 20
-57.74486902
  0
VERTEX
  8
0
 10
-0.99966232
 20
-58.00777355
  0
VERTEX
  8
0
 10
-0.80613952
 20
-58.22562614
  0
VERTEX
  8
0
 10
-0.60916056
 20
-58.39720093
  0
VERTEX
  8
0
 10
-0.40897676
 20
-58.52127207
  0
VERTEX
  8
0
 10
0.00000000
 20
-58.62200000
  0
SEQEND
  0
POLYLINE
  8
0
 66
   1
 39
0.000000
 70
    1
  0
VERTEX
  8
0
 10
-29.31100000
 20
-50.76814122
  0
VERTEX
  8
0
 10
-29.12004464
 20
-50.84907578
  0
VERTEX
  8
0
 10
-28.90645177
 20
-50.88539666
  0
VERTEX
  8
0
 10
-28.67105195
 20
-50.87803979
  0
VERTEX
  8
0
 10
-28.41467577
 20
-50.82794115
  0
VERTEX
  8
0
 10
-28.13815381
 20
-50.73603668
  0
VERTEX
  8
0
 10
-27.84231665
 20
-50.60326233
  0
VERTEX
  8
0
 10
-27.52799488
 20
-50.43055405
  0
VERTEX
  8
0
 10
-27.19601906
 20
-50.21884781
  0
VERTEX
  8
0
 10
-26.84721979
 20
-49.96907956
  0
VERTEX
  8
0
 10
-26.48242765
 20
-49.68218524
  0
VERTEX
  8
0
 10
-26.10247321
 20
-49.35910081
  0
VERTEX
  8
0
 10
-25.70818705
 20
-49.00076222
  0
VERTEX
  8
0
 10
-24.87994192
 20
-48.18206639
  0
VERTEX
  8
0
 10
-24.00433691
 20
-47.23358538
  0
VERTEX
  8
0
 10
-23.08801665
 20
-46.16280680
  0
VERTEX
  8
0
 10
-22.13762580
 20
-44.97721828
  0
VERTEX
  8
0
 10
-21.15980900
 20
-43.68430746
  0
VERTEX
  8
0
 10
-20.16121089
 20
-42.29156195
  0
VERTEX
  8
0
 10
-19.14847613
 20
-40.80646939
  0
VERTEX
  8
0
 10
-18.12824937
 20
-39.23651739
  0
VERTEX
  8
0
 10
-16.09189838
 20
-35.87198559
  0
VERTEX
  8
0
 10
-15.11239107
 20
-34.13412606
  0
VERTEX
  8
0
 10
-14.19630387
 20
-32.42618802
  0
VERTEX
  8
0
 10
-13.34679894
 20
-30.75766972
  0
VERTEX
  8
0
 10
-12.56703843
 20
-29.13806940
  0
VERTEX
  8
0
 10
-11.86018449
 20
-27.57688533
  0
VERTEX
  8
0
 10
-11.22939927
 20
-26.08361572
  0
VERTEX
  8
0
 10
-10.67784493
 20
-24.66775884
  0
VERTEX
  8
0
 10
-10.20868361
 20
-23.33881293
  0
VERTEX
  8
0
 10
-9.82507746
 20
-22.10627624
  0
VERTEX
  8
0
 10
-9.53018864
 20
-20.97964700
  0
VERTEX
  8
0
 10
-9.41700140
 20
-20.45901588
  0
VERTEX
  8
0
 10
-9.32717929
 20
-19.96842347
  0
VERTEX
  8
0
 10
-9.26111760
 20
-19.50905704
  0
VERTEX
  8
0
 10
-9.21921158
 20
-19.08210389
  0
VERTEX
  8
0
 10
-9.20185650
 20
-18.68875128
  0
VERTEX
  8
0
 10
-9.20944764
 20
-18.33018650
  0
VERTEX
  8
0
 10
-9.24238026
 20
-18.00759683
  0
VERTEX
  8
0
 10
-9.30104963
 20
-17.72216955
  0
VERTEX
  8
0
 10
-9.38585102
 20
-17.47509195
  0
VERTEX
  8
0
 10
-9.49717970
 20
-17.26755129
  0
VERTEX
  8
0
 10
-9.80100000
 20
-16.97582996
  0
VERTEX
  8
0
 10
-9.99195536
 20
-16.89489540
  0
VERTEX
  8
0
 10
-10.20554823
 20
-16.85857453
  0
VERTEX
  8
0
 10
-10.44094805
 20
-16.86593139
  0
VERTEX
  8
0
 10
-10.69732423
 20
-16.91603004
  0
VERTEX
  8
0
 10
-10.97384619
 20
-17.00793451
  0
VERTEX
  8
0
 10
-11.26968335
 20
-17.14070886
  0
VERTEX
  8
0
 10
-11.58400512
 20
-17.31341713
  0
VERTEX
  8
0
 10
-11.91598094
 20
-17.52512337
  0
VERTEX
  8
0
 10
-12.26478021
 20
-17.77489163
  0
VERTEX
  8
0
 10
-12.62957235
 20
-18.06178595
  0
VERTEX
  8
0
 10
-13.00952679
 20
-18.38487038
  0
VERTEX
  8
0
 10
-13.40381295
 20
-18.74320896
  0
VERTEX
  8
0
 10
-14.23205808
 20
-19.56190479
  0
VERTEX
  8
0
 10
-15.10766309
 20
-20.51038581
  0
VERTEX
  8
0
 10
-16.02398335
 20
-21.58116439
  0
VERTEX
  8
0
 10
-16.97437420
 20
-22.76675290
  0
VERTEX
  8
0
 10
-17.95219100
 20
-24.05966372
  0
VERTEX
  8
0
 10
-18.95078911
 20
-25.45240923
  0
VERTEX
  8
0
 10
-19.96352387
 20
-26.93750180
  0
VERTEX
  8
0
 10
-20.98375063
 20
-28.50745380
  0
VERTEX
  8
0
 10
-23.02010162
 20
-31.87198559
  0
VERTEX
  8
0
 10
-23.99960893
 20
-33.60984513
  0
VERTEX
  8
0
 10
-24.91569613
 20
-35.31778317
  0
VERTEX
  8
0
 10
-25.76520106
 20
-36.98630147
  0
VERTEX
  8
0
 10
-26.54496157
 20
-38.60590178
  0
VERTEX
  8
0
 10
-27.25181551
 20
-40.16708586
  0
VERTEX
  8
0
 10
-27.88260073
 20
-41.66035546
  0
VERTEX
  8
0
 10
-28.43415507
 20
-43.07621234
  0
VERTEX
  8
0
 10
-28.90331639
 20
-44.40515825
  0
VERTEX
  8
0
 10
-29.28692254
 20
-45.63769495
  0
VERTEX
  8
0
 10
-29.58181136
 20
-46.76432418
  0
VERTEX
  8
0
 10
-29.69499860
 20
-47.28495530
  0
VERTEX
  8
0
 10
-29.78482071
 20
-47.77554772
  0
VERTEX
  8
0
 10
-29.85088240
 20
-48.23491414
  0
VERTEX
  8
0
 10
-29.89278842
 20
-48.66186730
  0
VERTEX
  8
0
 10
-29.91014350
 20
-49.05521991
  0
VERTEX
  8
0
 10
-29.90255236
 20
-49.41378469
  0
VERTEX
  8
0
 10
-29.86961974
 20
-49.73637435
  0
VERTEX
  8
0
 10
-29.81095037
 20
-50.02180163
  0
VERTEX
  8
0
 10
-29.72614898
 20
-50.26887924
  0
VERTEX
  8
0
 10
-29.61482030
 20
-50.47641989
  0
VERTEX
  8
0
 10
-29.31100000
 20
-50.76814122
  0
SEQEND
  0
POLYLINE
  8
0
 66
   1
 39
0.000000
 70
    1
  0
VERTEX
  8
0
 10
-50.76814122
 20
-29.31100000
  0
VERTEX
  8
0
 10
-50.64323631
 20
-29.47656906
  0
VERTEX
  8
0
 10
-50.47641989
 20
-29.61482030
  0
VERTEX
  8
0
 10
-50.26887924
 20
-29.72614898
  0
VERTEX
  8
0
 10
-50.02180163
 20
-29.81095037
  0
VERTEX
  8
0
 10
-49.73637435
 20
-29.86961974
  0
VERTEX
  8
0
 10
-49.41378469
 20
-29.90255236
  0
VERTEX
  8
0
 10
-49.05521991
 20
-29.91014350
  0
VERTEX
  8
0
 10
-48.66186730
 20
-29.89278842
  0
VERTEX
  8
0
 10
-48.23491414
 20
-29.85088240
  0
VERTEX
  8
0
 10
-47.77554772
 20
-29.78482071
  0
VERTEX
  8
0
 10
-47.28495530
 20
-29.69499860
  0
VERTEX
  8
0
 10
-46.76432418
 20
-29.58181136
  0
VERTEX
  8
0
 10
-45.63769495
 20
-29.28692254
  0
VERTEX
  8
0
 10
-44.40515825
 20
-28.90331639
  0
VERTEX
  8
0
 10
-43.07621234
 20
-28.43415507
  0
VERTEX
  8
0
 10
-41.66035546
 20
-27.88260073
  0
VERTEX
  8
0
 10
-40.16708586
 20
-27.25181551
  0
VERTEX
  8
0
 10
-38.60590178
 20
-26.54496157
  0
VERTEX
  8
0
 10
-36.98630147
 20
-25.76520106
  0
VERTEX
  8
0
 10
-35.31778317
 20
-24.91569613
  0
VERTEX
  8
0
 10
-31.87198559
 20
-23.02010162
  0
VERTEX
  8
0
 10
-30.15477761
 20
-22.00482477
  0
VERTEX
  8
0
 10
-28.50745380
 20
-20.98375063
  0
VERTEX
  8
0
 10
-26.93750180
 20
-19.96352387
  0
VERTEX
  8
0
 10
-25.45240923
 20
-18.95078911
  0
VERTEX
  8
0
 10
-24.05966372
 20
-17.95219100
  0
VERTEX
  8
0
 10
-22.76675290
 20
-16.97437420
  0
VERTEX
  8
0
 10
-21.58116439
 20
-16.02398335
  0
VERTEX
  8
0
 10
-20.51038581
 20
-15.10766309
  0
VERTEX
  8
0
 10
-19.56190479
 20
-14.23205808
  0
VERTEX
  8
0
 10
-18.74320896
 20
-13.40381295
  0
VERTEX
  8
0
 10
-18.38487038
 20
-13.00952679
  0
VERTEX
  8
0
 10
-18.06178595
 20
-12.62957235
  0
VERTEX
  8
0
 10
-17.77489163
 20
-12.26478021
  0
VERTEX
  8
0
 10
-17.52512337
 20
-11.91598094
  0
VERTEX
  8
0
 10
-17.31341713
 20
-11.58400512
  0
VERTEX
  8
0
 10
-17.14070886
 20
-11.26968335
  0
VERTEX
  8
0
 10
-17.00793451
 20
-10.97384619
  0
VERTEX
  8
0
 10
-16.91603004
 20
-10.69732423
  0
VERTEX
  8
0
 10
-16.86593139
 20
-10.44094805
  0
VERTEX
  8
0
 10
-16.85857453
 20
-10.20554823
  0
VERTEX
  8
0
 10
-16.97582996
 20
-9.80100000
  0
VERTEX
  8
0
 10
-17.10073487
 20
-9.63543094
  0
VERTEX
  8
0
 10
-17.26755129
 20
-9.49717970
  0
VERTEX
  8
0
 10
-17.47509195
 20
-9.38585102
  0
VERTEX
  8
0
 10
-17.72216955
 20
-9.30104963
  0
VERTEX
  8
0
 10
-18.00759683
 20
-9.24238026
  0
VERTEX
  8
0
 10
-18.33018650
 20
-9.20944764
  0
VERTEX
  8
0
 10
-18.68875128
 20
-9.20185650
  0
VERTEX
  8
0
 10
-19.08210389
 20
-9.21921158
  0
VERTEX
  8
0
 10
-19.50905704
 20
-9.26111760
  0
VERTEX
  8
0
 10
-19.96842347
 20
-9.32717929
  0
VERTEX
  8
0
 10
-20.45901588
 20
-9.41700140
  0
VERTEX
  8
0
 10
-20.97964700
 20
-9.53018864
  0
VERTEX
  8
0
 10
-22.10627624
 20
-9.82507746
  0
VERTEX
  8
0
 10
-23.33881293
 20
-10.20868361
  0
VERTEX
  8
0
 10
-24.66775884
 20
-10.67784493
  0
VERTEX
  8
0
 10
-26.08361572
 20
-11.22939927
  0
VERTEX
  8
0
 10
-27.57688533
 20
-11.86018449
  0
VERTEX
  8
0
 10
-29.13806940
 20
-12.56703843
  0
VERTEX
  8
0
 10
-30.75766972
 20
-13.34679894
  0
VERTEX
  8
0
 10
-32.42618802
 20
-14.19630387
  0
VERTEX
  8
0
 10
-35.87198559
 20
-16.09189838
  0
VERTEX
  8
0
 10
-37.58919358
 20
-17.10717523
  0
VERTEX
  8
0
 10
-39.23651739
 20
-18.12824937
  0
VERTEX
  8
0
 10
-40.80646939
 20
-19.14847613
  0
VERTEX
  8
0
 10
-42.29156195
 20
-20.16121089
  0
VERTEX
  8
0
 10
-43.68430746
 20
-21.15980900
  0
VERTEX
  8
0
 10
-44.97721828
 20
-22.13762580
  0
VERTEX
  8
0
 10
-46.16280680
 20
-23.08801665
  0
VERTEX
  8
0
 10
-47.23358538
 20
-24.00433691
  0
VERTEX
  8
0
 10
-48.18206639
 20
-24.87994192
  0
VERTEX
  8
0
 10
-49.00076222
 20
-25.70818705
  0
VERTEX
  8
0
 10
-49.35910081
 20
-26.10247321
  0
VERTEX
  8
0
 10
-49.68218524
 20
-26.48242765
  0
VERTEX
  8
0
 10
-49.96907956
 20
-26.84721979
  0
VERTEX
  8
0
 10
-50.21884781
 20
-27.19601906
  0
VERTEX
  8
0
 10
-50.43055405
 20
-27.52799488
  0
VERTEX
  8
0
 10
-50.60326233
 20
-27.84231665
  0
VERTEX
  8
0
 10
-50.73603668
 20
-28.13815381
  0
VERTEX
  8
0
 10
-50.82794115
 20
-28.41467577
  0
VERTEX
  8
0
 10
-50.87803979
 20
-28.67105195
  0
VERTEX
  8
0
 10
-50.88539666
 20
-28.90645177
  0
VERTEX
  8
0
 10
-50.76814122
 20
-29.31100000
  0
SEQEND
  0
POLYLINE
  8
0
 66
   1
 39
0.000000
 70
    1
  0
VERTEX
  8
0
 10
-58.62200000
 20
0.00000000
  0
VERTEX
  8
0
 10
-58.59661371
 20
-0.20583947
  0
VERTEX
  8
0
 10
-58.52127207
 20
-0.40897676
  0
VERTEX
  8
0
 10
-58.39720093
 20
-0.60916056
  0
VERTEX
  8
0
 10
-58.22562614
 20
-0.80613952
  0
VERTEX
  8
0
 10
-58.00777355
 20
-0.99966232
  0
VERTEX
  8
0
 10
-57.74486902
 20
-1.18947764
  0
VERTEX
  8
0
 10
-57.43813838
 20
-1.37533415
  0
VERTEX
  8
0
 10
-57.08880749
 20
-1.55698052
  0
VERTEX
  8
0
 10
-56.69810220
 20
-1.73416542
  0
VERTEX
  8
0
 10
-56.26724836
 20
-1.90663752
  0
VERTEX
  8
0
 10
-55.79747181
 20
-2.07414550
  0
VERTEX
  8
0
 10
-55.28999841
 20
-2.23643804
  0
VERTEX
  8
0
 10
-54.16686446
 20
-2.54437144
  0
VERTEX
  8
0
 10
-52.90765330
 20
-2.82842712
  0
VERTEX
  8
0
 10
-51.52217172
 20
-3.08659446
  0
VERTEX
  8
0
 10
-50.02022652
 20
-3.31686282
  0
VERTEX
  8
0
 10
-48.41162451
 20
-3.51722160
  0
VERTEX
  8
0
 10
-46.70617246
 20
-3.68566017
  0
VERTEX
  8
0
 10
-44.91367719
 20
-3.82016792
  0
VERTEX
  8
0
 10
-43.04394550
 20
-3.91873422
  0
VERTEX
  8
0
 10
-39.11200000
 20
-4.00000000
  0
VERTEX
  8
0
 10
-37.11721583
 20
-3.97934845
  0
VERTEX
  8
0
 10
-35.18005450
 20
-3.91873422
  0
VERTEX
  8
0
 10
-33.31032281
 20
-3.82016792
  0
VERTEX
  8
0
 10
-31.51782754
 20
-3.68566017
  0
VERTEX
  8
0
 10
-29.81237549
 20
-3.51722160
  0
VERTEX
  8
0
 10
-28.20377348
 20
-3.31686282
  0
VERTEX
  8
0
 10
-26.70182828
 20
-3.08659446
  0
VERTEX
  8
0
 10
-25.31634670
 20
-2.82842712
  0
VERTEX
  8
0
 10
-24.05713554
 20
-2.54437144
  0
VERTEX
  8
0
 10
-22.93400159
 20
-2.23643804
  0
VERTEX
  8
0
 10
-22.42652819
 20
-2.07414550
  0
VERTEX
  8
0
 10
-21.95675164
 20
-1.90663752
  0
VERTEX
  8
0
 10
-21.52589780
 20
-1.73416542
  0
VERTEX
  8
0
 10
-21.13519251
 20
-1.55698052
  0
VERTEX
  8
0
 10
-20.78586162
 20
-1.37533415
  0
VERTEX
  8
0
 10
-20.47913098
 20
-1.18947764
  0
VERTEX
  8
0
 10
-20.21622645
 20
-0.99966232
  0
VERTEX
  8
0
 10
-19.99837386
 20
-0.80613952
  0
VERTEX
  8
0
 10
-19.82679907
 20
-0.60916056
  0
VERTEX
  8
0
 10
-19.70272793
 20
-0.40897676
  0
VERTEX
  8
0
 10
-19.60200000
 20
0.00000000
  0
VERTEX
  8
0
 10
-19.62738629
 20
0.20583947
  0
VERTEX
  8
0
 10
-19.70272793
 20
0.40897676
  0
VERTEX
  8
0
 10
-19.82679907
 20
0.60916056
  0
VERTEX
  8
0
 10
-19.99837386
 20
0.80613952
  0
VERTEX
  8
0
 10
-20.21622645
 20
0.99966232
  0
VERTEX
  8
0
 10
-20.47913098
 20
1.18947764
  0
VERTEX
  8
0
 10
-20.78586162
 20
1.37533415
  0
VERTEX
  8
0
 10
-21.13519251
 20
1.55698052
  0
VERTEX
  8
0
 10
-21.52589780
 20
1.73416542
  0
VERTEX
  8
0
 10
-21.95675164
 20
1.90663752
  0
VERTEX
  8
0
 10
-22.42652819
 20
2.07414550
  0
VERTEX
  8
0
 10
-22.93400159
 20
2.23643804
  0
VERTEX
  8
0
 10
-24.05713554
 20
2.54437144
  0
VERTEX
  8
0
 10
-25.31634670
 20
2.82842712
  0
VERTEX
  8
0
 10
-26.70182828
 20
3.08659446
  0
VERTEX
  8
0
 10
-28.20377348
 20
3.31686282
  0
VERTEX
  8
0
 10
-29.81237549
 20
3.51722160
  0
VERTEX
  8
0
 10
-31.51782754
 20
3.68566017
  0
VERTEX
  8
0
 10
-33.31032281
 20
3.82016792
  0
VERTEX
  8
0
 10
-35.18005450
 20
3.91873422
  0
VERTEX
  8
0
 10
-39.11200000
 20
4.00000000
  0
VERTEX
  8
0
 10
-41.10678417
 20
3.97934845
  0
VERTEX
  8
0
 10
-43.04394550
 20
3.91873422
  0
VERTEX
  8
0
 10
-44.91367719
 20
3.82016792
  0
VERTEX
  8
0
 10
-46.70617246
 20
3.68566017
  0
VERTEX
  8
0
 10
-48.41162451
 20
3.51722160
  0
VERTEX
  8
0
 10
-50.02022652
 20
3.31686282
  0
VERTEX
  8
0
 10
-51.52217172
 20
3.08659446
  0
VERTEX
  8
0
 10
-52.90765330
 20
2.82842712
  0
VERTEX
  8
0
 10
-54.16686446
 20
2.54437144
  0
VERTEX
  8
0
 10
-55.28999841
 20
2.23643804
  0
VERTEX
  8
0
 10
-55.79747181
 20
2.07414550
  0
VERTEX
  8
0
 10
-56.26724836
 20
1.90663752
  0
VERTEX
  8
0
 10
-56.69810220
 20
1.73416542
  0
VERTEX
  8
0
 10
-57.08880749
 20
1.55698052
  0
VERTEX
  8
0
 10
-57.43813838
 20
1.37533415
  0
VERTEX
  8
0
 10
-57.74486902
 20
1.18947764
  0
VERTEX
  8
0
 10
-58.00777355
 20
0.99966232
  0
VERTEX
  8
0
 10
-58.22562614
 20
0.80613952
  0
VERTEX
  8
0
 10
-58.39720093
 20
0.60916056
  0
VERTEX
  8
0
 10
-58.52127207
 20
0.40897676
  0
VERTEX
  8
0
 10
-58.62200000
 20
0.00000000
  0
SEQEND
  0
POLYLINE
  8
0
 66
   1
 39
0.000000
 70
    1
  0
VERTEX
  8
0
 10
-50.76814122
 20
29.31100000
  0
VERTEX
  8
0
 10
-50.84907578
 20
29.12004464
  0
VERTEX
  8
0
 10
-50.88539666
 20
28.90645177
  0
VERTEX
  8
0
 10
-50.87803979
 20
28.67105195
  0
VERTEX
  8
0
 10
-50.82794115
 20
28.41467577
  0
VERTEX
  8
0
 10
-50.73603668
 20
28.13815381
  0
VERTEX
  8
0
 10
-50.60326233
 20
27.84231665
  0
VERTEX
  8
0
 10
-50.43055405
 20
27.52799488
  0
VERTEX
  8
0
 10
-50.21884781
 20
27.19601906
  0
VERTEX
  8
0
 10
-49.96907956
 20
26.84721979
  0
VERTEX
  8
0
 10
-49.68218524
 20
26.48242765
  0
VERTEX
  8
0
 10
-49.35910081
 20
26.10247321
  0
VERTEX
  8
0
 10
-49.00076222
 20
25.70818705
  0
VERTEX
  8
0
 10
-48.18206639
 20
24.87994192
  0
VERTEX
  8
0
 10
-47.23358538
 20
24.00433691
  0
VERTEX
  8
0
 10
-46.16280680
 20
23.08801665
  0
VERTEX
  8
0
 10
-44.97721828
 20
22.13762580
  0
VERTEX
  8
0
 10
-43.68430746
 20
21.15980900
  0
VERTEX
  8
0
 10
-42.29156195
 20
20.16121089
  0
VERTEX
  8
0
 10
-40.80646939
 20
19.14847613
  0
VERTEX
  8
0
 10
-39.23651739
 20
18.12824937
  0
VERTEX
  8
0
 10
-35.87198559
 20
16.09189838
  0
VERTEX
  8
0
 10
-34.13412606
 20
15.11239107
  0
VERTEX
  8
0
 10
-32.42618802
 20
14.19630387
  0
VERTEX
  8
0
 10
-30.75766972
 20
13.34679894
  0
VERTEX
  8
0
 10
-29.13806940
 20
12.56703843
  0
VERTEX
  8
0
 10
-27.57688533
 20
11.86018449
  0
VERTEX
  8
0
 10
-26.08361572
 20
11.22939927
  0
VERTEX
  8
0
 10
-24.66775884
 20
10.67784493
  0
VERTEX
  8
0
 10
-23.33881293
 20
10.20868361
  0
VERTEX
  8
0
 10
-22.10627624
 20
9.82507746
  0
VERTEX
  8
0
 10
-20.97964700
 20
9.53018864
  0
VERTEX
  8
0
 10
-20.45901588
 20
9.41700140
  0
VERTEX
  8
0
 10
-19.96842347
 20
9.32717929
  0
VERTEX
  8
0
 10
-19.50905704
 20
9.26111760
  0
VERTEX
  8
0
 10
-19.08210389
 20
9.21921158
  0
VERTEX
  8
0
 10
-18.68875128
 20
9.20185650
  0
VERTEX
  8
0
 10
-18.33018650
 20
9.20944764
  0
VERTEX
  8
0
 10
-18.00759683
 20
9.24238026
  0
VERTEX
  8
0
 10
-17.72216955
 20
9.30104963
  0
VERTEX
  8
0
 10
-17.47509195
 20
9.38585102
  0
VERTEX
  8
0
 10
-17.26755129
 20
9.49717970
  0
VERTEX
  8
0
 10
-16.97582996
 20
9.80100000
  0
VERTEX
  8
0
 10
-16.89489540
 20
9.99195536
  0
VERTEX
  8
0
 10
-16.85857453
 20
10.20554823
  0
VERTEX
  8
0
 10
-16.86593139
 20
10.44094805
  0
VERTEX
  8
0
 10
-16.91603004
 20
10.69732423
  0
VERTEX
  8
0
 10
-17.00793451
 20
10.97384619
  0
VERTEX
  8
0
 10
-17.14070886
 20
11.26968335
  0
VERTEX
  8
0
 10
-17.31341713
 20
11.58400512
  0
VERTEX
  8
0
 10
-17.52512337
 20
11.91598094
  0
VERTEX
  8
0
 10
-17.77489163
 20
12.26478021
  0
VERTEX
  8
0
 10
-18.06178595
 20
12.62957235
  0
VERTEX
  8
0
 10
-18.38487038
 20
13.00952679
  0
VERTEX
  8
0
 10
-18.74320896
 20
13.40381295
  0
VERTEX
  8
0
 10
-19.56190479
 20
14.23205808
  0
VERTEX
  8
0
 10
-20.51038581
 20
15.10766309
  0
VERTEX
  8
0
 10
-21.58116439
 20
16.02398335
  0
VERTEX
  8
0
 10
-22.76675290
 20
16.97437420
  0
VERTEX
  8
0
 10
-24.05966372
 20
17.95219100
  0
VERTEX
  8
0
 10
-25.45240923
 20
18.95078911
  0
VERTEX
  8
0
 10
-26.93750180
 20
19.96352387
  0
VERTEX
  8
0
 10
-28.50745380
 20
20.98375063
  0
VERTEX
  8
0
 10
-31.87198559
 20
23.02010162
  0
VERTEX
  8
0
 10
-33.60984513
 20
23.99960893
  0
VERTEX
  8
0
 10
-35.31778317
 20
24.91569613
  0
VERTEX
  8
0
 10
-36.98630147
 20
25.76520106
  0
VERTEX
  8
0
 10
-38.60590178
 20
26.54496157
  0
VERTEX
  8
0
 10
-40.16708586
 20
27.25181551
  0
VERTEX
  8
0
 10
-41.66035546
 20
27.88260073
  0
VERTEX
  8
0
 10
-43.07621234
 20
28.43415507
  0
VERTEX
  8
0
 10
-44.40515825
 20
28.90331639
  0
VERTEX
  8
0
 10
-45.63769495
 20
29.28692254
  0
VERTEX
  8
0
 10
-46.76432418
 20
29.58181136
  0
VERTEX
  8
0
 10
-47.28495530
 20
29.69499860
  0
VERTEX
  8
0
 10
-47.77554772
 20
29.78482071
  0
VERTEX
  8
0
 10
-48.23491414
 20
29.85088240
  0
VERTEX
  8
0
 10
-48.66186730
 20
29.89278842
  0
VERTEX
  8
0
 10
-49.05521991
 20
29.91014350
  0
VERTEX
  8
0
 10
-49.41378469
 20
29.90255236
  0
VERTEX
  8
0
 10
-49.73637435
 20
29.86961974
  0
VERTEX
  8
0
 10
-50.02180163
 20
29.81095037
  0
VERTEX
  8
0
 10
-50.26887924
 20
29.72614898
  0
VERTEX
  8
0
 10
-50.47641989
 20
29.61482030
  0
VERTEX
  8
0
 10
-50.76814122
 20
29.31100000
  0
SEQEND
  0
POLYLINE
  8
0
 66
   1
 39
0.000000
 70
    1
  0
VERTEX
  8
0
 10
-29.31100000
 20
50.76814122
  0
VERTEX
  8
0
 10
-29.47656906
 20
50.64323631
  0
VERTEX
  8
0
 10
-29.61482030
 20
50.47641989
  0
VERTEX
  8
0
 10
-29.72614898
 20
50.26887924
  0
VERTEX
  8
0
 10
-29.81095037
 20
50.02180163
  0
VERTEX
  8
0
 10
-29.86961974
 20
49.73637435
  0
VERTEX
  8
0
 10
-29.90255236
 20
49.41378469
  0
VERTEX
  8
0
 10
-29.91014350
 20
49.05521991
  0
VERTEX
  8
0
 10
-29.89278842
 20
48.66186730
  0
VERTEX
  8
0
 10
-29.85088240
 20
48.23491414
  0
VERTEX
  8
0
 10
-29.78482071
 20
47.77554772
  0
VERTEX
  8
0
 10
-29.69499860
 20
47.28495530
  0
VERTEX
  8
0
 10
-29.58181136
 20
46.76432418
  0
VERTEX
  8
0
 10
-29.28692254
 20
45.63769495
  0
VERTEX
  8
0
 10
-28.90331639
 20
44.40515825
  0
VERTEX
  8
0
 10
-28.43415507
 20
43.07621234
  0
VERTEX
  8
0
 10
-27.88260073
 20
41.66035546
  0
VERTEX
  8
0
 10
-27.25181551
 20
40.16708586
  0
VERTEX
  8
0
 10
-26.54496157
 20
38.60590178
  0
VERTEX
  8
0
 10
-25.76520106
 20
36.98630147
  0
VERTEX
  8
0
 10
-24.91569613
 20
35.31778317
  0
VERTEX
  8
0
 10
-23.02010162
 20
31.87198559
  0
VERTEX
  8
0
 10
-22.00482477
 20
30.15477761
  0
VERTEX
  8
0
 10
-20.98375063
 20
28.50745380
  0
VERTEX
  8
0
 10
-19.96352387
 20
26.93750180
  0
VERTEX
  8
0
 10
-18.95078911
 20
25.45240923
  0
VERTEX
  8
0
 10
-17.95219100
 20
24.05966372
  0
VERTEX
  8
0
 10
-16.97437420
 20
22.76675290
  0
VERTEX
  8
0
 10
-16.02398335
 20
21.58116439
  0
VERTEX
  8
0
 10
-15.10766309
 20
20.51038581
  0
VERTEX
  8
0
 10
-14.23205808
 20
19.56190479
  0
VERTEX
  8
0
 10
-13.40381295
 20
18.74320896
  0
VERTEX
  8
0
 10
-13.00952679
 20
18.38487038
  0
VERTEX
  8
0
 10
-12.62957235
 20
18.06178595
  0
VERTEX
  8
0
 10
-12.26478021
 20
17.77489163
  0
VERTEX
  8
0
 10
-11.91598094
 20
17.52512337
  0
VERTEX
  8
0
 10
-11.58400512
 20
17.31341713
  0
VERTEX
  8
0
 10
-11.26968335
 20
17.14070886
  0
VERTEX
  8
0
 10
-10.97384619
 20
17.00793451
  0
VERTEX
  8
0
 10
-10.69732423
 20
16.91603004
  0
VERTEX
  8
0
 10
-10.44094805
 20
16.86593139
  0
VERTEX
  8
0
 10
-10.20554823
 20
16.85857453
  0
VERTEX
  8
0
 10
-9.80100000
 20
16.97582996
  0
VERTEX
  8
0
 10
-9.63543094
 20
17.10073487
  0
VERTEX
  8
0
 10
-9.49717970
 20
17.26755129
  0
VERTEX
  8
0
 10
-9.38585102
 20
17.47509195
  0
VERTEX
  8
0
 10
-9.30104963
 20
17.72216955
  0
VERTEX
  8
0
 10
-9.24238026
 20
18.00759683
  0
VERTEX
  8
0
 10
-9.20944764
 20
18.33018650
  0
VERTEX
  8
0
 10
-9.20185650
 20
18.68875128
  0
VERTEX
  8
0
 10
-9.21921158
 20
19.08210389
  0
VERTEX
  8
0
 10
-9.26111760
 20
19.50905704
  0
VERTEX
  8
0
 10
-9.32717929
 20
19.96842347
  0
VERTEX
  8
0
 10
-9.41700140
 20
20.45901588
  0
VERTEX
  8
0
 10
-9.53018864
 20
20.97964700
  0
VERTEX
  8
0
 10
-9.82507746
 20
22.10627624
  0
VERTEX
  8
0
 10
-10.20868361
 20
23.33881293
  0
VERTEX
  8
0
 10
-10.67784493
 20
24.66775884
  0
VERTEX
  8
0
 10
-11.22939927
 20
26.08361572
  0
VERTEX
  8
0
 10
-11.86018449
 20
27.57688533
  0
VERTEX
  8
0
 10
-12.56703843
 20
29.13806940
  0
VERTEX
  8
0
 10
-13.34679894
 20
30.75766972
  0
VERTEX
  8
0
 10
-14.19630387
 20
32.42618802
  0
VERTEX
  8
0
 10
-16.09189838
 20
35.87198559
  0
VERTEX
  8
0
 10
-17.10717523
 20
37.58919358
  0
VERTEX
  8
0
 10
-18.12824937
 20
39.23651739
  0
VERTEX
  8
0
 10
-19.14847613
 20
40.80646939
  0
VERTEX
  8
0
 10
-20.16121089
 20
42.29156195
  0
VERTEX
  8
0
 10
-21.15980900
 20
43.68430746
  0
VERTEX
  8
0
 10
-22.13762580
 20
44.97721828
  0
VERTEX
  8
0
 10
-23.08801665
 20
46.16280680
  0
VERTEX
  8
0
 10
-24.00433691
 20
47.23358538
  0
VERTEX
  8
0
 10
-24.87994192
 20
48.18206639
  0
VERTEX
  8
0
 10
-25.70818705
 20
49.00076222
  0
VERTEX
  8
0
 10
-26.10247321
 20
49.35910081
  0
VERTEX
  8
0
 10
-26.48242765
 20
49.68218524
  0
VERTEX
  8
0
 10
-26.84721979
 20
49.96907956
  0
VERTEX
  8
0
 10
-27.19601906
 20
50.21884781
  0
VERTEX
  8
0
 10
-27.52799488
 20
50.43055405
  0
VERTEX
  8
0
 10
-27.84231665
 20
50.60326233
  0
VERTEX
  8
0
 10
-28.13815381
 20
50.73603668
  0
VERTEX
  8
0
 10
-28.41467577
 20
50.82794115
  0
VERTEX
  8
0
 10
-28.67105195
 20
50.87803979
  0
VERTEX
  8
0
 10
-28.90645177
 20
50.88539666
  0
VERTEX
  8
0
 10
-29.31100000
 20
50.76814122
  0
SEQEND
  0
ENDSEC
  0
EOF
