  0
SECTION
  2
HEADER
  9
$ACADVER
  1
AC1009
  9
$EXTMIN
 10
-199.75000000
 20
-57.64000000
 30
0.0
  9
$EXTMAX
 10
199.75000000
 20
57.64000000
 30
0.0
  0
ENDSEC
  0
SECTION
  2
TABLES
  0
TABLE
  2
LAYER
 70
2
 0
LAYER
 2
Preview Toolpath Layer
 70
0
 62
1
 6
CONTINUOUS
 0
LAYER
 2
Capa por Defecto
 70
0
 62
1
 6
CONTINUOUS
 0
ENDTAB
 0
ENDSEC
  0
SECTION
  2
ENTITIES
  0
POLYLINE
  8
Preview Toolpath Layer
 66
   1
 39
0.000000
 70
    1
  0
VERTEX
  8
0
 10
9.50000000
 20
0.00000000
 42
0.41421356
  0
VERTEX
  8
0
 10
0.00000000
 20
9.50000000
 42
0.41421356
  0
VERTEX
  8
0
 10
-9.50000000
 20
0.00000000
 42
0.41421356
  0
VERTEX
  8
0
 10
0.00000000
 20
-9.50000000
 42
0.41421356
  0
VERTEX
  8
0
 10
9.50000000
 20
0.00000000
  0
SEQEND
  0
POLYLINE
  8
Preview Toolpath Layer
 66
   1
 39
0.000000
 70
    0
  0
VERTEX
  8
0
 10
-6.71751442
 20
6.71751442
  0
VERTEX
  8
0
 10
6.71751442
 20
-6.71751442
  0
SEQEND
  0
POLYLINE
  8
Preview Toolpath Layer
 66
   1
 39
0.000000
 70
    0
  0
VERTEX
  8
0
 10
6.71751442
 20
6.71751442
  0
VERTEX
  8
0
 10
-6.71751442
 20
-6.71751442
  0
SEQEND
  0
POLYLINE
  8
Capa por Defecto
 66
   1
 39
0.000000
 70
    1
  0
VERTEX
  8
0
 10
-104.50000000
 20
-31.70000000
  0
VERTEX
  8
0
 10
-104.52839588
 20
-31.13765695
  0
VERTEX
  8
0
 10
-104.61174045
 20
-30.59155816
  0
VERTEX
  8
0
 10
-104.74726911
 20
-30.06446824
  0
VERTEX
  8
0
 10
-104.93221726
 20
-29.55915179
  0
VERTEX
  8
0
 10
-105.16382030
 20
-29.07837341
  0
VERTEX
  8
0
 10
-105.43931362
 20
-28.62489770
  0
VERTEX
  8
0
 10
-105.75593262
 20
-28.20148926
  0
VERTEX
  8
0
 10
-106.11091270
 20
-27.81091270
  0
VERTEX
  8
0
 10
-106.50148926
 20
-27.45593262
  0
VERTEX
  8
0
 10
-106.92489770
 20
-27.13931362
  0
VERTEX
  8
0
 10
-107.37837341
 20
-26.86382030
  0
VERTEX
  8
0
 10
-107.85915179
 20
-26.63221726
  0
VERTEX
  8
0
 10
-108.36446824
 20
-26.44726911
  0
VERTEX
  8
0
 10
-108.89155816
 20
-26.31174045
  0
VERTEX
  8
0
 10
-109.43765695
 20
-26.22839588
  0
VERTEX
  8
0
 10
-110.00000000
 20
-26.20000000
  0
VERTEX
  8
0
 10
-110.56234305
 20
-26.22839588
  0
VERTEX
  8
0
 10
-111.10844184
 20
-26.31174045
  0
VERTEX
  8
0
 10
-111.63553176
 20
-26.44726911
  0
VERTEX
  8
0
 10
-112.14084821
 20
-26.63221726
  0
VERTEX
  8
0
 10
-112.62162659
 20
-26.86382030
  0
VERTEX
  8
0
 10
-113.07510230
 20
-27.13931362
  0
VERTEX
  8
0
 10
-113.49851074
 20
-27.45593262
  0
VERTEX
  8
0
 10
-113.88908730
 20
-27.81091270
  0
VERTEX
  8
0
 10
-114.24406738
 20
-28.20148926
  0
VERTEX
  8
0
 10
-114.56068638
 20
-28.62489770
  0
VERTEX
  8
0
 10
-114.83617970
 20
-29.07837341
  0
VERTEX
  8
0
 10
-115.06778274
 20
-29.55915179
  0
VERTEX
  8
0
 10
-115.25273089
 20
-30.06446824
  0
VERTEX
  8
0
 10
-115.38825955
 20
-30.59155816
  0
VERTEX
  8
0
 10
-115.47160412
 20
-31.13765695
  0
VERTEX
  8
0
 10
-115.50000000
 20
-31.70000000
  0
VERTEX
  8
0
 10
-115.47160412
 20
-32.26234305
  0
VERTEX
  8
0
 10
-115.38825955
 20
-32.80844184
  0
VERTEX
  8
0
 10
-115.25273089
 20
-33.33553176
  0
VERTEX
  8
0
 10
-115.06778274
 20
-33.84084821
  0
VERTEX
  8
0
 10
-114.83617970
 20
-34.32162659
  0
VERTEX
  8
0
 10
-114.56068638
 20
-34.77510230
  0
VERTEX
  8
0
 10
-114.24406738
 20
-35.19851074
  0
VERTEX
  8
0
 10
-113.88908730
 20
-35.58908730
  0
VERTEX
  8
0
 10
-113.49851074
 20
-35.94406738
  0
VERTEX
  8
0
 10
-113.07510230
 20
-36.26068638
  0
VERTEX
  8
0
 10
-112.62162659
 20
-36.53617970
  0
VERTEX
  8
0
 10
-112.14084821
 20
-36.76778274
  0
VERTEX
  8
0
 10
-111.63553176
 20
-36.95273089
  0
VERTEX
  8
0
 10
-111.10844184
 20
-37.08825955
  0
VERTEX
  8
0
 10
-110.56234305
 20
-37.17160412
  0
VERTEX
  8
0
 10
-110.00000000
 20
-37.20000000
  0
VERTEX
  8
0
 10
-109.43765695
 20
-37.17160412
  0
VERTEX
  8
0
 10
-108.89155816
 20
-37.08825955
  0
VERTEX
  8
0
 10
-108.36446824
 20
-36.95273089
  0
VERTEX
  8
0
 10
-107.85915179
 20
-36.76778274
  0
VERTEX
  8
0
 10
-107.37837341
 20
-36.53617970
  0
VERTEX
  8
0
 10
-106.92489770
 20
-36.26068638
  0
VERTEX
  8
0
 10
-106.50148926
 20
-35.94406738
  0
VERTEX
  8
0
 10
-106.11091270
 20
-35.58908730
  0
VERTEX
  8
0
 10
-105.75593262
 20
-35.19851074
  0
VERTEX
  8
0
 10
-105.43931362
 20
-34.77510230
  0
VERTEX
  8
0
 10
-105.16382030
 20
-34.32162659
  0
VERTEX
  8
0
 10
-104.93221726
 20
-33.84084821
  0
VERTEX
  8
0
 10
-104.74726911
 20
-33.33553176
  0
VERTEX
  8
0
 10
-104.61174045
 20
-32.80844184
  0
VERTEX
  8
0
 10
-104.52839588
 20
-32.26234305
  0
VERTEX
  8
0
 10
-104.50000000
 20
-31.70000000
  0
SEQEND
  0
POLYLINE
  8
Capa por Defecto
 66
   1
 39
0.000000
 70
    1
  0
VERTEX
  8
0
 10
-130.00000000
 20
-31.70000000
  0
VERTEX
  8
0
 10
-129.97397612
 20
-30.67080265
  0
VERTEX
  8
0
 10
-129.89674225
 20
-29.65511618
  0
VERTEX
  8
0
 10
-129.76955503
 20
-28.65419722
  0
VERTEX
  8
0
 10
-129.59367108
 20
-27.66930241
  0
VERTEX
  8
0
 10
-129.37034706
 20
-26.70168839
  0
VERTEX
  8
0
 10
-129.10083959
 20
-25.75261179
  0
VERTEX
  8
0
 10
-128.78640531
 20
-24.82332926
  0
VERTEX
  8
0
 10
-128.42830086
 20
-23.91509742
  0
VERTEX
  8
0
 10
-128.02778288
 20
-23.02917292
  0
VERTEX
  8
0
 10
-127.58610800
 20
-22.16681240
  0
VERTEX
  8
0
 10
-127.10453287
 20
-21.32927248
  0
VERTEX
  8
0
 10
-126.58431411
 20
-20.51780982
  0
VERTEX
  8
0
 10
-126.02670837
 20
-19.73368103
  0
VERTEX
  8
0
 10
-125.43297229
 20
-18.97814278
  0
VERTEX
  8
0
 10
-124.80436249
 20
-18.25245168
  0
VERTEX
  8
0
 10
-124.14213562
 20
-17.55786438
  0
VERTEX
  8
0
 10
-123.44754832
 20
-16.89563751
  0
VERTEX
  8
0
 10
-122.72185722
 20
-16.26702771
  0
VERTEX
  8
0
 10
-121.96631897
 20
-15.67329163
  0
VERTEX
  8
0
 10
-121.18219018
 20
-15.11568589
  0
VERTEX
  8
0
 10
-120.37072752
 20
-14.59546713
  0
VERTEX
  8
0
 10
-119.53318760
 20
-14.11389200
  0
VERTEX
  8
0
 10
-118.67082708
 20
-13.67221712
  0
VERTEX
  8
0
 10
-117.78490258
 20
-13.27169914
  0
VERTEX
  8
0
 10
-116.87667074
 20
-12.91359469
  0
VERTEX
  8
0
 10
-115.94738821
 20
-12.59916041
  0
VERTEX
  8
0
 10
-114.99831161
 20
-12.32965294
  0
VERTEX
  8
0
 10
-114.03069759
 20
-12.10632892
  0
VERTEX
  8
0
 10
-113.04580278
 20
-11.93044497
  0
VERTEX
  8
0
 10
-112.04488382
 20
-11.80325775
  0
VERTEX
  8
0
 10
-111.02919735
 20
-11.72602388
  0
VERTEX
  8
0
 10
-110.00000000
 20
-11.70000000
  0
VERTEX
  8
0
 10
-108.97080265
 20
-11.72602388
  0
VERTEX
  8
0
 10
-107.95511618
 20
-11.80325775
  0
VERTEX
  8
0
 10
-106.95419722
 20
-11.93044497
  0
VERTEX
  8
0
 10
-105.96930241
 20
-12.10632892
  0
VERTEX
  8
0
 10
-105.00168839
 20
-12.32965294
  0
VERTEX
  8
0
 10
-104.05261179
 20
-12.59916041
  0
VERTEX
  8
0
 10
-103.12332926
 20
-12.91359469
  0
VERTEX
  8
0
 10
-102.21509742
 20
-13.27169914
  0
VERTEX
  8
0
 10
-101.32917292
 20
-13.67221712
  0
VERTEX
  8
0
 10
-100.46681240
 20
-14.11389200
  0
VERTEX
  8
0
 10
-99.62927248
 20
-14.59546713
  0
VERTEX
  8
0
 10
-98.81780982
 20
-15.11568589
  0
VERTEX
  8
0
 10
-98.03368103
 20
-15.67329163
  0
VERTEX
  8
0
 10
-97.27814278
 20
-16.26702771
  0
VERTEX
  8
0
 10
-96.55245168
 20
-16.89563751
  0
VERTEX
  8
0
 10
-95.85786438
 20
-17.55786438
  0
VERTEX
  8
0
 10
-95.19563751
 20
-18.25245168
  0
VERTEX
  8
0
 10
-94.56702771
 20
-18.97814278
  0
VERTEX
  8
0
 10
-93.97329163
 20
-19.73368103
  0
VERTEX
  8
0
 10
-93.41568589
 20
-20.51780982
  0
VERTEX
  8
0
 10
-92.89546713
 20
-21.32927248
  0
VERTEX
  8
0
 10
-92.41389200
 20
-22.16681240
  0
VERTEX
  8
0
 10
-91.97221712
 20
-23.02917292
  0
VERTEX
  8
0
 10
-91.57169914
 20
-23.91509742
  0
VERTEX
  8
0
 10
-91.21359469
 20
-24.82332926
  0
VERTEX
  8
0
 10
-90.89916041
 20
-25.75261179
  0
VERTEX
  8
0
 10
-90.62965294
 20
-26.70168839
  0
VERTEX
  8
0
 10
-90.40632892
 20
-27.66930241
  0
VERTEX
  8
0
 10
-90.23044497
 20
-28.65419722
  0
VERTEX
  8
0
 10
-90.10325775
 20
-29.65511618
  0
VERTEX
  8
0
 10
-90.02602388
 20
-30.67080265
  0
VERTEX
  8
0
 10
-90.00000000
 20
-31.70000000
  0
VERTEX
  8
0
 10
-90.02602388
 20
-32.72919735
  0
VERTEX
  8
0
 10
-90.10325775
 20
-33.74488382
  0
VERTEX
  8
0
 10
-90.23044497
 20
-34.74580278
  0
VERTEX
  8
0
 10
-90.40632892
 20
-35.73069759
  0
VERTEX
  8
0
 10
-90.62965294
 20
-36.69831161
  0
VERTEX
  8
0
 10
-90.89916041
 20
-37.64738821
  0
VERTEX
  8
0
 10
-91.21359469
 20
-38.57667074
  0
VERTEX
  8
0
 10
-91.57169914
 20
-39.48490258
  0
VERTEX
  8
0
 10
-91.97221712
 20
-40.37082708
  0
VERTEX
  8
0
 10
-92.41389200
 20
-41.23318760
  0
VERTEX
  8
0
 10
-92.89546713
 20
-42.07072752
  0
VERTEX
  8
0
 10
-93.41568589
 20
-42.88219018
  0
VERTEX
  8
0
 10
-93.97329163
 20
-43.66631897
  0
VERTEX
  8
0
 10
-94.56702771
 20
-44.42185722
  0
VERTEX
  8
0
 10
-95.19563751
 20
-45.14754832
  0
VERTEX
  8
0
 10
-95.85786438
 20
-45.84213562
  0
VERTEX
  8
0
 10
-96.55245168
 20
-46.50436249
  0
VERTEX
  8
0
 10
-97.27814278
 20
-47.13297229
  0
VERTEX
  8
0
 10
-98.03368103
 20
-47.72670837
  0
VERTEX
  8
0
 10
-98.81780982
 20
-48.28431411
  0
VERTEX
  8
0
 10
-99.62927248
 20
-48.80453287
  0
VERTEX
  8
0
 10
-100.46681240
 20
-49.28610800
  0
VERTEX
  8
0
 10
-101.32917292
 20
-49.72778288
  0
VERTEX
  8
0
 10
-102.21509742
 20
-50.12830086
  0
VERTEX
  8
0
 10
-103.12332926
 20
-50.48640531
  0
VERTEX
  8
0
 10
-104.05261179
 20
-50.80083959
  0
VERTEX
  8
0
 10
-105.00168839
 20
-51.07034706
  0
VERTEX
  8
0
 10
-105.96930241
 20
-51.29367108
  0
VERTEX
  8
0
 10
-106.95419722
 20
-51.46955503
  0
VERTEX
  8
0
 10
-107.95511618
 20
-51.59674225
  0
VERTEX
  8
0
 10
-108.97080265
 20
-51.67397612
  0
VERTEX
  8
0
 10
-110.00000000
 20
-51.70000000
  0
VERTEX
  8
0
 10
-111.02919735
 20
-51.67397612
  0
VERTEX
  8
0
 10
-112.04488382
 20
-51.59674225
  0
VERTEX
  8
0
 10
-113.04580278
 20
-51.46955503
  0
VERTEX
  8
0
 10
-114.03069759
 20
-51.29367108
  0
VERTEX
  8
0
 10
-114.99831161
 20
-51.07034706
  0
VERTEX
  8
0
 10
-115.94738821
 20
-50.80083959
  0
VERTEX
  8
0
 10
-116.87667074
 20
-50.48640531
  0
VERTEX
  8
0
 10
-117.78490258
 20
-50.12830086
  0
VERTEX
  8
0
 10
-118.67082708
 20
-49.72778288
  0
VERTEX
  8
0
 10
-119.53318760
 20
-49.28610800
  0
VERTEX
  8
0
 10
-120.37072752
 20
-48.80453287
  0
VERTEX
  8
0
 10
-121.18219018
 20
-48.28431411
  0
VERTEX
  8
0
 10
-121.96631897
 20
-47.72670837
  0
VERTEX
  8
0
 10
-122.72185722
 20
-47.13297229
  0
VERTEX
  8
0
 10
-123.44754832
 20
-46.50436249
  0
VERTEX
  8
0
 10
-124.14213562
 20
-45.84213562
  0
VERTEX
  8
0
 10
-124.80436249
 20
-45.14754832
  0
VERTEX
  8
0
 10
-125.43297229
 20
-44.42185722
  0
VERTEX
  8
0
 10
-126.02670837
 20
-43.66631897
  0
VERTEX
  8
0
 10
-126.58431411
 20
-42.88219018
  0
VERTEX
  8
0
 10
-127.10453287
 20
-42.07072752
  0
VERTEX
  8
0
 10
-127.58610800
 20
-41.23318760
  0
VERTEX
  8
0
 10
-128.02778288
 20
-40.37082708
  0
VERTEX
  8
0
 10
-128.42830086
 20
-39.48490258
  0
VERTEX
  8
0
 10
-128.78640531
 20
-38.57667074
  0
VERTEX
  8
0
 10
-129.10083959
 20
-37.64738821
  0
VERTEX
  8
0
 10
-129.37034706
 20
-36.69831161
  0
VERTEX
  8
0
 10
-129.59367108
 20
-35.73069759
  0
VERTEX
  8
0
 10
-129.76955503
 20
-34.74580278
  0
VERTEX
  8
0
 10
-129.89674225
 20
-33.74488382
  0
VERTEX
  8
0
 10
-129.97397612
 20
-32.72919735
  0
VERTEX
  8
0
 10
-130.00000000
 20
-31.70000000
  0
SEQEND
  0
POLYLINE
  8
Capa por Defecto
 66
   1
 39
0.000000
 70
    1
  0
VERTEX
  8
0
 10
-75.00000000
 20
-31.70000000
  0
VERTEX
  8
0
 10
-74.97397612
 20
-30.67080265
  0
VERTEX
  8
0
 10
-74.89674225
 20
-29.65511618
  0
VERTEX
  8
0
 10
-74.76955503
 20
-28.65419722
  0
VERTEX
  8
0
 10
-74.59367108
 20
-27.66930241
  0
VERTEX
  8
0
 10
-74.37034706
 20
-26.70168839
  0
VERTEX
  8
0
 10
-74.10083959
 20
-25.75261179
  0
VERTEX
  8
0
 10
-73.78640531
 20
-24.82332926
  0
VERTEX
  8
0
 10
-73.42830086
 20
-23.91509742
  0
VERTEX
  8
0
 10
-73.02778288
 20
-23.02917292
  0
VERTEX
  8
0
 10
-72.58610800
 20
-22.16681240
  0
VERTEX
  8
0
 10
-72.10453287
 20
-21.32927248
  0
VERTEX
  8
0
 10
-71.58431411
 20
-20.51780982
  0
VERTEX
  8
0
 10
-71.02670837
 20
-19.73368103
  0
VERTEX
  8
0
 10
-70.43297229
 20
-18.97814278
  0
VERTEX
  8
0
 10
-69.80436249
 20
-18.25245168
  0
VERTEX
  8
0
 10
-69.14213562
 20
-17.55786438
  0
VERTEX
  8
0
 10
-68.44754832
 20
-16.89563751
  0
VERTEX
  8
0
 10
-67.72185722
 20
-16.26702771
  0
VERTEX
  8
0
 10
-66.96631897
 20
-15.67329163
  0
VERTEX
  8
0
 10
-66.18219018
 20
-15.11568589
  0
VERTEX
  8
0
 10
-65.37072752
 20
-14.59546713
  0
VERTEX
  8
0
 10
-64.53318760
 20
-14.11389200
  0
VERTEX
  8
0
 10
-63.67082708
 20
-13.67221712
  0
VERTEX
  8
0
 10
-62.78490258
 20
-13.27169914
  0
VERTEX
  8
0
 10
-61.87667074
 20
-12.91359469
  0
VERTEX
  8
0
 10
-60.94738821
 20
-12.59916041
  0
VERTEX
  8
0
 10
-59.99831161
 20
-12.32965294
  0
VERTEX
  8
0
 10
-59.03069759
 20
-12.10632892
  0
VERTEX
  8
0
 10
-58.04580278
 20
-11.93044497
  0
VERTEX
  8
0
 10
-57.04488382
 20
-11.80325775
  0
VERTEX
  8
0
 10
-56.02919735
 20
-11.72602388
  0
VERTEX
  8
0
 10
-55.00000000
 20
-11.70000000
  0
VERTEX
  8
0
 10
-53.97080265
 20
-11.72602388
  0
VERTEX
  8
0
 10
-52.95511618
 20
-11.80325775
  0
VERTEX
  8
0
 10
-51.95419722
 20
-11.93044497
  0
VERTEX
  8
0
 10
-50.96930241
 20
-12.10632892
  0
VERTEX
  8
0
 10
-50.00168839
 20
-12.32965294
  0
VERTEX
  8
0
 10
-49.05261179
 20
-12.59916041
  0
VERTEX
  8
0
 10
-48.12332926
 20
-12.91359469
  0
VERTEX
  8
0
 10
-47.21509742
 20
-13.27169914
  0
VERTEX
  8
0
 10
-46.32917292
 20
-13.67221712
  0
VERTEX
  8
0
 10
-45.46681240
 20
-14.11389200
  0
VERTEX
  8
0
 10
-44.62927248
 20
-14.59546713
  0
VERTEX
  8
0
 10
-43.81780982
 20
-15.11568589
  0
VERTEX
  8
0
 10
-43.03368103
 20
-15.67329163
  0
VERTEX
  8
0
 10
-42.27814278
 20
-16.26702771
  0
VERTEX
  8
0
 10
-41.55245168
 20
-16.89563751
  0
VERTEX
  8
0
 10
-40.85786438
 20
-17.55786438
  0
VERTEX
  8
0
 10
-40.19563751
 20
-18.25245168
  0
VERTEX
  8
0
 10
-39.56702771
 20
-18.97814278
  0
VERTEX
  8
0
 10
-38.97329163
 20
-19.73368103
  0
VERTEX
  8
0
 10
-38.41568589
 20
-20.51780982
  0
VERTEX
  8
0
 10
-37.89546713
 20
-21.32927248
  0
VERTEX
  8
0
 10
-37.41389200
 20
-22.16681240
  0
VERTEX
  8
0
 10
-36.97221712
 20
-23.02917292
  0
VERTEX
  8
0
 10
-36.57169914
 20
-23.91509742
  0
VERTEX
  8
0
 10
-36.21359469
 20
-24.82332926
  0
VERTEX
  8
0
 10
-35.89916041
 20
-25.75261179
  0
VERTEX
  8
0
 10
-35.62965294
 20
-26.70168839
  0
VERTEX
  8
0
 10
-35.40632892
 20
-27.66930241
  0
VERTEX
  8
0
 10
-35.23044497
 20
-28.65419722
  0
VERTEX
  8
0
 10
-35.10325775
 20
-29.65511618
  0
VERTEX
  8
0
 10
-35.02602388
 20
-30.67080265
  0
VERTEX
  8
0
 10
-35.00000000
 20
-31.70000000
  0
VERTEX
  8
0
 10
-35.02602388
 20
-32.72919735
  0
VERTEX
  8
0
 10
-35.10325775
 20
-33.74488382
  0
VERTEX
  8
0
 10
-35.23044497
 20
-34.74580278
  0
VERTEX
  8
0
 10
-35.40632892
 20
-35.73069759
  0
VERTEX
  8
0
 10
-35.62965294
 20
-36.69831161
  0
VERTEX
  8
0
 10
-35.89916041
 20
-37.64738821
  0
VERTEX
  8
0
 10
-36.21359469
 20
-38.57667074
  0
VERTEX
  8
0
 10
-36.57169914
 20
-39.48490258
  0
VERTEX
  8
0
 10
-36.97221712
 20
-40.37082708
  0
VERTEX
  8
0
 10
-37.41389200
 20
-41.23318760
  0
VERTEX
  8
0
 10
-37.89546713
 20
-42.07072752
  0
VERTEX
  8
0
 10
-38.41568589
 20
-42.88219018
  0
VERTEX
  8
0
 10
-38.97329163
 20
-43.66631897
  0
VERTEX
  8
0
 10
-39.56702771
 20
-44.42185722
  0
VERTEX
  8
0
 10
-40.19563751
 20
-45.14754832
  0
VERTEX
  8
0
 10
-40.85786438
 20
-45.84213562
  0
VERTEX
  8
0
 10
-41.55245168
 20
-46.50436249
  0
VERTEX
  8
0
 10
-42.27814278
 20
-47.13297229
  0
VERTEX
  8
0
 10
-43.03368103
 20
-47.72670837
  0
VERTEX
  8
0
 10
-43.81780982
 20
-48.28431411
  0
VERTEX
  8
0
 10
-44.62927248
 20
-48.80453287
  0
VERTEX
  8
0
 10
-45.46681240
 20
-49.28610800
  0
VERTEX
  8
0
 10
-46.32917292
 20
-49.72778288
  0
VERTEX
  8
0
 10
-47.21509742
 20
-50.12830086
  0
VERTEX
  8
0
 10
-48.12332926
 20
-50.48640531
  0
VERTEX
  8
0
 10
-49.05261179
 20
-50.80083959
  0
VERTEX
  8
0
 10
-50.00168839
 20
-51.07034706
  0
VERTEX
  8
0
 10
-50.96930241
 20
-51.29367108
  0
VERTEX
  8
0
 10
-51.95419722
 20
-51.46955503
  0
VERTEX
  8
0
 10
-52.95511618
 20
-51.59674225
  0
VERTEX
  8
0
 10
-53.97080265
 20
-51.67397612
  0
VERTEX
  8
0
 10
-55.00000000
 20
-51.70000000
  0
VERTEX
  8
0
 10
-56.02919735
 20
-51.67397612
  0
VERTEX
  8
0
 10
-57.04488382
 20
-51.59674225
  0
VERTEX
  8
0
 10
-58.04580278
 20
-51.46955503
  0
VERTEX
  8
0
 10
-59.03069759
 20
-51.29367108
  0
VERTEX
  8
0
 10
-59.99831161
 20
-51.07034706
  0
VERTEX
  8
0
 10
-60.94738821
 20
-50.80083959
  0
VERTEX
  8
0
 10
-61.87667074
 20
-50.48640531
  0
VERTEX
  8
0
 10
-62.78490258
 20
-50.12830086
  0
VERTEX
  8
0
 10
-63.67082708
 20
-49.72778288
  0
VERTEX
  8
0
 10
-64.53318760
 20
-49.28610800
  0
VERTEX
  8
0
 10
-65.37072752
 20
-48.80453287
  0
VERTEX
  8
0
 10
-66.18219018
 20
-48.28431411
  0
VERTEX
  8
0
 10
-66.96631897
 20
-47.72670837
  0
VERTEX
  8
0
 10
-67.72185722
 20
-47.13297229
  0
VERTEX
  8
0
 10
-68.44754832
 20
-46.50436249
  0
VERTEX
  8
0
 10
-69.14213562
 20
-45.84213562
  0
VERTEX
  8
0
 10
-69.80436249
 20
-45.14754832
  0
VERTEX
  8
0
 10
-70.43297229
 20
-44.42185722
  0
VERTEX
  8
0
 10
-71.02670837
 20
-43.66631897
  0
VERTEX
  8
0
 10
-71.58431411
 20
-42.88219018
  0
VERTEX
  8
0
 10
-72.10453287
 20
-42.07072752
  0
VERTEX
  8
0
 10
-72.58610800
 20
-41.23318760
  0
VERTEX
  8
0
 10
-73.02778288
 20
-40.37082708
  0
VERTEX
  8
0
 10
-73.42830086
 20
-39.48490258
  0
VERTEX
  8
0
 10
-73.78640531
 20
-38.57667074
  0
VERTEX
  8
0
 10
-74.10083959
 20
-37.64738821
  0
VERTEX
  8
0
 10
-74.37034706
 20
-36.69831161
  0
VERTEX
  8
0
 10
-74.59367108
 20
-35.73069759
  0
VERTEX
  8
0
 10
-74.76955503
 20
-34.74580278
  0
VERTEX
  8
0
 10
-74.89674225
 20
-33.74488382
  0
VERTEX
  8
0
 10
-74.97397612
 20
-32.72919735
  0
VERTEX
  8
0
 10
-75.00000000
 20
-31.70000000
  0
SEQEND
  0
POLYLINE
  8
Capa por Defecto
 66
   1
 39
0.000000
 70
    1
  0
VERTEX
  8
0
 10
-20.00000000
 20
-31.70000000
  0
VERTEX
  8
0
 10
-19.97397612
 20
-30.67080265
  0
VERTEX
  8
0
 10
-19.89674225
 20
-29.65511618
  0
VERTEX
  8
0
 10
-19.76955503
 20
-28.65419722
  0
VERTEX
  8
0
 10
-19.59367108
 20
-27.66930241
  0
VERTEX
  8
0
 10
-19.37034706
 20
-26.70168839
  0
VERTEX
  8
0
 10
-19.10083959
 20
-25.75261179
  0
VERTEX
  8
0
 10
-18.78640531
 20
-24.82332926
  0
VERTEX
  8
0
 10
-18.42830086
 20
-23.91509742
  0
VERTEX
  8
0
 10
-18.02778288
 20
-23.02917292
  0
VERTEX
  8
0
 10
-17.58610800
 20
-22.16681240
  0
VERTEX
  8
0
 10
-17.10453287
 20
-21.32927248
  0
VERTEX
  8
0
 10
-16.58431411
 20
-20.51780982
  0
VERTEX
  8
0
 10
-16.02670837
 20
-19.73368103
  0
VERTEX
  8
0
 10
-15.43297229
 20
-18.97814278
  0
VERTEX
  8
0
 10
-14.80436249
 20
-18.25245168
  0
VERTEX
  8
0
 10
-14.14213562
 20
-17.55786438
  0
VERTEX
  8
0
 10
-13.44754832
 20
-16.89563751
  0
VERTEX
  8
0
 10
-12.72185722
 20
-16.26702771
  0
VERTEX
  8
0
 10
-11.96631897
 20
-15.67329163
  0
VERTEX
  8
0
 10
-11.18219018
 20
-15.11568589
  0
VERTEX
  8
0
 10
-10.37072752
 20
-14.59546713
  0
VERTEX
  8
0
 10
-9.53318760
 20
-14.11389200
  0
VERTEX
  8
0
 10
-8.67082708
 20
-13.67221712
  0
VERTEX
  8
0
 10
-7.78490258
 20
-13.27169914
  0
VERTEX
  8
0
 10
-6.87667074
 20
-12.91359469
  0
VERTEX
  8
0
 10
-5.94738821
 20
-12.59916041
  0
VERTEX
  8
0
 10
-4.99831161
 20
-12.32965294
  0
VERTEX
  8
0
 10
-4.03069759
 20
-12.10632892
  0
VERTEX
  8
0
 10
-3.04580278
 20
-11.93044497
  0
VERTEX
  8
0
 10
-2.04488382
 20
-11.80325775
  0
VERTEX
  8
0
 10
-1.02919735
 20
-11.72602388
  0
VERTEX
  8
0
 10
0.00000000
 20
-11.70000000
  0
VERTEX
  8
0
 10
1.02919735
 20
-11.72602388
  0
VERTEX
  8
0
 10
2.04488382
 20
-11.80325775
  0
VERTEX
  8
0
 10
3.04580278
 20
-11.93044497
  0
VERTEX
  8
0
 10
4.03069759
 20
-12.10632892
  0
VERTEX
  8
0
 10
4.99831161
 20
-12.32965294
  0
VERTEX
  8
0
 10
5.94738821
 20
-12.59916041
  0
VERTEX
  8
0
 10
6.87667074
 20
-12.91359469
  0
VERTEX
  8
0
 10
7.78490258
 20
-13.27169914
  0
VERTEX
  8
0
 10
8.67082708
 20
-13.67221712
  0
VERTEX
  8
0
 10
9.53318760
 20
-14.11389200
  0
VERTEX
  8
0
 10
10.37072752
 20
-14.59546713
  0
VERTEX
  8
0
 10
11.18219018
 20
-15.11568589
  0
VERTEX
  8
0
 10
11.96631897
 20
-15.67329163
  0
VERTEX
  8
0
 10
12.72185722
 20
-16.26702771
  0
VERTEX
  8
0
 10
13.44754832
 20
-16.89563751
  0
VERTEX
  8
0
 10
14.14213562
 20
-17.55786438
  0
VERTEX
  8
0
 10
14.80436249
 20
-18.25245168
  0
VERTEX
  8
0
 10
15.43297229
 20
-18.97814278
  0
VERTEX
  8
0
 10
16.02670837
 20
-19.73368103
  0
VERTEX
  8
0
 10
16.58431411
 20
-20.51780982
  0
VERTEX
  8
0
 10
17.10453287
 20
-21.32927248
  0
VERTEX
  8
0
 10
17.58610800
 20
-22.16681240
  0
VERTEX
  8
0
 10
18.02778288
 20
-23.02917292
  0
VERTEX
  8
0
 10
18.42830086
 20
-23.91509742
  0
VERTEX
  8
0
 10
18.78640531
 20
-24.82332926
  0
VERTEX
  8
0
 10
19.10083959
 20
-25.75261179
  0
VERTEX
  8
0
 10
19.37034706
 20
-26.70168839
  0
VERTEX
  8
0
 10
19.59367108
 20
-27.66930241
  0
VERTEX
  8
0
 10
19.76955503
 20
-28.65419722
  0
VERTEX
  8
0
 10
19.89674225
 20
-29.65511618
  0
VERTEX
  8
0
 10
19.97397612
 20
-30.67080265
  0
VERTEX
  8
0
 10
20.00000000
 20
-31.70000000
  0
VERTEX
  8
0
 10
19.97397612
 20
-32.72919735
  0
VERTEX
  8
0
 10
19.89674225
 20
-33.74488382
  0
VERTEX
  8
0
 10
19.76955503
 20
-34.74580278
  0
VERTEX
  8
0
 10
19.59367108
 20
-35.73069759
  0
VERTEX
  8
0
 10
19.37034706
 20
-36.69831161
  0
VERTEX
  8
0
 10
19.10083959
 20
-37.64738821
  0
VERTEX
  8
0
 10
18.78640531
 20
-38.57667074
  0
VERTEX
  8
0
 10
18.42830086
 20
-39.48490258
  0
VERTEX
  8
0
 10
18.02778288
 20
-40.37082708
  0
VERTEX
  8
0
 10
17.58610800
 20
-41.23318760
  0
VERTEX
  8
0
 10
17.10453287
 20
-42.07072752
  0
VERTEX
  8
0
 10
16.58431411
 20
-42.88219018
  0
VERTEX
  8
0
 10
16.02670837
 20
-43.66631897
  0
VERTEX
  8
0
 10
15.43297229
 20
-44.42185722
  0
VERTEX
  8
0
 10
14.80436249
 20
-45.14754832
  0
VERTEX
  8
0
 10
14.14213562
 20
-45.84213562
  0
VERTEX
  8
0
 10
13.44754832
 20
-46.50436249
  0
VERTEX
  8
0
 10
12.72185722
 20
-47.13297229
  0
VERTEX
  8
0
 10
11.96631897
 20
-47.72670837
  0
VERTEX
  8
0
 10
11.18219018
 20
-48.28431411
  0
VERTEX
  8
0
 10
10.37072752
 20
-48.80453287
  0
VERTEX
  8
0
 10
9.53318760
 20
-49.28610800
  0
VERTEX
  8
0
 10
8.67082708
 20
-49.72778288
  0
VERTEX
  8
0
 10
7.78490258
 20
-50.12830086
  0
VERTEX
  8
0
 10
6.87667074
 20
-50.48640531
  0
VERTEX
  8
0
 10
5.94738821
 20
-50.80083959
  0
VERTEX
  8
0
 10
4.99831161
 20
-51.07034706
  0
VERTEX
  8
0
 10
4.03069759
 20
-51.29367108
  0
VERTEX
  8
0
 10
3.04580278
 20
-51.46955503
  0
VERTEX
  8
0
 10
2.04488382
 20
-51.59674225
  0
VERTEX
  8
0
 10
1.02919735
 20
-51.67397612
  0
VERTEX
  8
0
 10
0.00000000
 20
-51.70000000
  0
VERTEX
  8
0
 10
-1.02919735
 20
-51.67397612
  0
VERTEX
  8
0
 10
-2.04488382
 20
-51.59674225
  0
VERTEX
  8
0
 10
-3.04580278
 20
-51.46955503
  0
VERTEX
  8
0
 10
-4.03069759
 20
-51.29367108
  0
VERTEX
  8
0
 10
-4.99831161
 20
-51.07034706
  0
VERTEX
  8
0
 10
-5.94738821
 20
-50.80083959
  0
VERTEX
  8
0
 10
-6.87667074
 20
-50.48640531
  0
VERTEX
  8
0
 10
-7.78490258
 20
-50.12830086
  0
VERTEX
  8
0
 10
-8.67082708
 20
-49.72778288
  0
VERTEX
  8
0
 10
-9.53318760
 20
-49.28610800
  0
VERTEX
  8
0
 10
-10.37072752
 20
-48.80453287
  0
VERTEX
  8
0
 10
-11.18219018
 20
-48.28431411
  0
VERTEX
  8
0
 10
-11.96631897
 20
-47.72670837
  0
VERTEX
  8
0
 10
-12.72185722
 20
-47.13297229
  0
VERTEX
  8
0
 10
-13.44754832
 20
-46.50436249
  0
VERTEX
  8
0
 10
-14.14213562
 20
-45.84213562
  0
VERTEX
  8
0
 10
-14.80436249
 20
-45.14754832
  0
VERTEX
  8
0
 10
-15.43297229
 20
-44.42185722
  0
VERTEX
  8
0
 10
-16.02670837
 20
-43.66631897
  0
VERTEX
  8
0
 10
-16.58431411
 20
-42.88219018
  0
VERTEX
  8
0
 10
-17.10453287
 20
-42.07072752
  0
VERTEX
  8
0
 10
-17.58610800
 20
-41.23318760
  0
VERTEX
  8
0
 10
-18.02778288
 20
-40.37082708
  0
VERTEX
  8
0
 10
-18.42830086
 20
-39.48490258
  0
VERTEX
  8
0
 10
-18.78640531
 20
-38.57667074
  0
VERTEX
  8
0
 10
-19.10083959
 20
-37.64738821
  0
VERTEX
  8
0
 10
-19.37034706
 20
-36.69831161
  0
VERTEX
  8
0
 10
-19.59367108
 20
-35.73069759
  0
VERTEX
  8
0
 10
-19.76955503
 20
-34.74580278
  0
VERTEX
  8
0
 10
-19.89674225
 20
-33.74488382
  0
VERTEX
  8
0
 10
-19.97397612
 20
-32.72919735
  0
VERTEX
  8
0
 10
-20.00000000
 20
-31.70000000
  0
SEQEND
  0
POLYLINE
  8
Capa por Defecto
 66
   1
 39
0.000000
 70
    1
  0
VERTEX
  8
0
 10
35.00000000
 20
-31.70000000
  0
VERTEX
  8
0
 10
35.02602388
 20
-30.67080265
  0
VERTEX
  8
0
 10
35.10325775
 20
-29.65511618
  0
VERTEX
  8
0
 10
35.23044497
 20
-28.65419722
  0
VERTEX
  8
0
 10
35.40632892
 20
-27.66930241
  0
VERTEX
  8
0
 10
35.62965294
 20
-26.70168839
  0
VERTEX
  8
0
 10
35.89916041
 20
-25.75261179
  0
VERTEX
  8
0
 10
36.21359469
 20
-24.82332926
  0
VERTEX
  8
0
 10
36.57169914
 20
-23.91509742
  0
VERTEX
  8
0
 10
36.97221712
 20
-23.02917292
  0
VERTEX
  8
0
 10
37.41389200
 20
-22.16681240
  0
VERTEX
  8
0
 10
37.89546713
 20
-21.32927248
  0
VERTEX
  8
0
 10
38.41568589
 20
-20.51780982
  0
VERTEX
  8
0
 10
38.97329163
 20
-19.73368103
  0
VERTEX
  8
0
 10
39.56702771
 20
-18.97814278
  0
VERTEX
  8
0
 10
40.19563751
 20
-18.25245168
  0
VERTEX
  8
0
 10
40.85786438
 20
-17.55786438
  0
VERTEX
  8
0
 10
41.55245168
 20
-16.89563751
  0
VERTEX
  8
0
 10
42.27814278
 20
-16.26702771
  0
VERTEX
  8
0
 10
43.03368103
 20
-15.67329163
  0
VERTEX
  8
0
 10
43.81780982
 20
-15.11568589
  0
VERTEX
  8
0
 10
44.62927248
 20
-14.59546713
  0
VERTEX
  8
0
 10
45.46681240
 20
-14.11389200
  0
VERTEX
  8
0
 10
46.32917292
 20
-13.67221712
  0
VERTEX
  8
0
 10
47.21509742
 20
-13.27169914
  0
VERTEX
  8
0
 10
48.12332926
 20
-12.91359469
  0
VERTEX
  8
0
 10
49.05261179
 20
-12.59916041
  0
VERTEX
  8
0
 10
50.00168839
 20
-12.32965294
  0
VERTEX
  8
0
 10
50.96930241
 20
-12.10632892
  0
VERTEX
  8
0
 10
51.95419722
 20
-11.93044497
  0
VERTEX
  8
0
 10
52.95511618
 20
-11.80325775
  0
VERTEX
  8
0
 10
53.97080265
 20
-11.72602388
  0
VERTEX
  8
0
 10
55.00000000
 20
-11.70000000
  0
VERTEX
  8
0
 10
56.02919735
 20
-11.72602388
  0
VERTEX
  8
0
 10
57.04488382
 20
-11.80325775
  0
VERTEX
  8
0
 10
58.04580278
 20
-11.93044497
  0
VERTEX
  8
0
 10
59.03069759
 20
-12.10632892
  0
VERTEX
  8
0
 10
59.99831161
 20
-12.32965294
  0
VERTEX
  8
0
 10
60.94738821
 20
-12.59916041
  0
VERTEX
  8
0
 10
61.87667074
 20
-12.91359469
  0
VERTEX
  8
0
 10
62.78490258
 20
-13.27169914
  0
VERTEX
  8
0
 10
63.67082708
 20
-13.67221712
  0
VERTEX
  8
0
 10
64.53318760
 20
-14.11389200
  0
VERTEX
  8
0
 10
65.37072752
 20
-14.59546713
  0
VERTEX
  8
0
 10
66.18219018
 20
-15.11568589
  0
VERTEX
  8
0
 10
66.96631897
 20
-15.67329163
  0
VERTEX
  8
0
 10
67.72185722
 20
-16.26702771
  0
VERTEX
  8
0
 10
68.44754832
 20
-16.89563751
  0
VERTEX
  8
0
 10
69.14213562
 20
-17.55786438
  0
VERTEX
  8
0
 10
69.80436249
 20
-18.25245168
  0
VERTEX
  8
0
 10
70.43297229
 20
-18.97814278
  0
VERTEX
  8
0
 10
71.02670837
 20
-19.73368103
  0
VERTEX
  8
0
 10
71.58431411
 20
-20.51780982
  0
VERTEX
  8
0
 10
72.10453287
 20
-21.32927248
  0
VERTEX
  8
0
 10
72.58610800
 20
-22.16681240
  0
VERTEX
  8
0
 10
73.02778288
 20
-23.02917292
  0
VERTEX
  8
0
 10
73.42830086
 20
-23.91509742
  0
VERTEX
  8
0
 10
73.78640531
 20
-24.82332926
  0
VERTEX
  8
0
 10
74.10083959
 20
-25.75261179
  0
VERTEX
  8
0
 10
74.37034706
 20
-26.70168839
  0
VERTEX
  8
0
 10
74.59367108
 20
-27.66930241
  0
VERTEX
  8
0
 10
74.76955503
 20
-28.65419722
  0
VERTEX
  8
0
 10
74.89674225
 20
-29.65511618
  0
VERTEX
  8
0
 10
74.97397612
 20
-30.67080265
  0
VERTEX
  8
0
 10
75.00000000
 20
-31.70000000
  0
VERTEX
  8
0
 10
74.97397612
 20
-32.72919735
  0
VERTEX
  8
0
 10
74.89674225
 20
-33.74488382
  0
VERTEX
  8
0
 10
74.76955503
 20
-34.74580278
  0
VERTEX
  8
0
 10
74.59367108
 20
-35.73069759
  0
VERTEX
  8
0
 10
74.37034706
 20
-36.69831161
  0
VERTEX
  8
0
 10
74.10083959
 20
-37.64738821
  0
VERTEX
  8
0
 10
73.78640531
 20
-38.57667074
  0
VERTEX
  8
0
 10
73.42830086
 20
-39.48490258
  0
VERTEX
  8
0
 10
73.02778288
 20
-40.37082708
  0
VERTEX
  8
0
 10
72.58610800
 20
-41.23318760
  0
VERTEX
  8
0
 10
72.10453287
 20
-42.07072752
  0
VERTEX
  8
0
 10
71.58431411
 20
-42.88219018
  0
VERTEX
  8
0
 10
71.02670837
 20
-43.66631897
  0
VERTEX
  8
0
 10
70.43297229
 20
-44.42185722
  0
VERTEX
  8
0
 10
69.80436249
 20
-45.14754832
  0
VERTEX
  8
0
 10
69.14213562
 20
-45.84213562
  0
VERTEX
  8
0
 10
68.44754832
 20
-46.50436249
  0
VERTEX
  8
0
 10
67.72185722
 20
-47.13297229
  0
VERTEX
  8
0
 10
66.96631897
 20
-47.72670837
  0
VERTEX
  8
0
 10
66.18219018
 20
-48.28431411
  0
VERTEX
  8
0
 10
65.37072752
 20
-48.80453287
  0
VERTEX
  8
0
 10
64.53318760
 20
-49.28610800
  0
VERTEX
  8
0
 10
63.67082708
 20
-49.72778288
  0
VERTEX
  8
0
 10
62.78490258
 20
-50.12830086
  0
VERTEX
  8
0
 10
61.87667074
 20
-50.48640531
  0
VERTEX
  8
0
 10
60.94738821
 20
-50.80083959
  0
VERTEX
  8
0
 10
59.99831161
 20
-51.07034706
  0
VERTEX
  8
0
 10
59.03069759
 20
-51.29367108
  0
VERTEX
  8
0
 10
58.04580278
 20
-51.46955503
  0
VERTEX
  8
0
 10
57.04488382
 20
-51.59674225
  0
VERTEX
  8
0
 10
56.02919735
 20
-51.67397612
  0
VERTEX
  8
0
 10
55.00000000
 20
-51.70000000
  0
VERTEX
  8
0
 10
53.97080265
 20
-51.67397612
  0
VERTEX
  8
0
 10
52.95511618
 20
-51.59674225
  0
VERTEX
  8
0
 10
51.95419722
 20
-51.46955503
  0
VERTEX
  8
0
 10
50.96930241
 20
-51.29367108
  0
VERTEX
  8
0
 10
50.00168839
 20
-51.07034706
  0
VERTEX
  8
0
 10
49.05261179
 20
-50.80083959
  0
VERTEX
  8
0
 10
48.12332926
 20
-50.48640531
  0
VERTEX
  8
0
 10
47.21509742
 20
-50.12830086
  0
VERTEX
  8
0
 10
46.32917292
 20
-49.72778288
  0
VERTEX
  8
0
 10
45.46681240
 20
-49.28610800
  0
VERTEX
  8
0
 10
44.62927248
 20
-48.80453287
  0
VERTEX
  8
0
 10
43.81780982
 20
-48.28431411
  0
VERTEX
  8
0
 10
43.03368103
 20
-47.72670837
  0
VERTEX
  8
0
 10
42.27814278
 20
-47.13297229
  0
VERTEX
  8
0
 10
41.55245168
 20
-46.50436249
  0
VERTEX
  8
0
 10
40.85786438
 20
-45.84213562
  0
VERTEX
  8
0
 10
40.19563751
 20
-45.14754832
  0
VERTEX
  8
0
 10
39.56702771
 20
-44.42185722
  0
VERTEX
  8
0
 10
38.97329163
 20
-43.66631897
  0
VERTEX
  8
0
 10
38.41568589
 20
-42.88219018
  0
VERTEX
  8
0
 10
37.89546713
 20
-42.07072752
  0
VERTEX
  8
0
 10
37.41389200
 20
-41.23318760
  0
VERTEX
  8
0
 10
36.97221712
 20
-40.37082708
  0
VERTEX
  8
0
 10
36.57169914
 20
-39.48490258
  0
VERTEX
  8
0
 10
36.21359469
 20
-38.57667074
  0
VERTEX
  8
0
 10
35.89916041
 20
-37.64738821
  0
VERTEX
  8
0
 10
35.62965294
 20
-36.69831161
  0
VERTEX
  8
0
 10
35.40632892
 20
-35.73069759
  0
VERTEX
  8
0
 10
35.23044497
 20
-34.74580278
  0
VERTEX
  8
0
 10
35.10325775
 20
-33.74488382
  0
VERTEX
  8
0
 10
35.02602388
 20
-32.72919735
  0
VERTEX
  8
0
 10
35.00000000
 20
-31.70000000
  0
SEQEND
  0
POLYLINE
  8
Capa por Defecto
 66
   1
 39
0.000000
 70
    1
  0
VERTEX
  8
0
 10
90.00000000
 20
-31.70000000
  0
VERTEX
  8
0
 10
90.02602388
 20
-30.67080265
  0
VERTEX
  8
0
 10
90.10325775
 20
-29.65511618
  0
VERTEX
  8
0
 10
90.23044497
 20
-28.65419722
  0
VERTEX
  8
0
 10
90.40632892
 20
-27.66930241
  0
VERTEX
  8
0
 10
90.62965294
 20
-26.70168839
  0
VERTEX
  8
0
 10
90.89916041
 20
-25.75261179
  0
VERTEX
  8
0
 10
91.21359469
 20
-24.82332926
  0
VERTEX
  8
0
 10
91.57169914
 20
-23.91509742
  0
VERTEX
  8
0
 10
91.97221712
 20
-23.02917292
  0
VERTEX
  8
0
 10
92.41389200
 20
-22.16681240
  0
VERTEX
  8
0
 10
92.89546713
 20
-21.32927248
  0
VERTEX
  8
0
 10
93.41568589
 20
-20.51780982
  0
VERTEX
  8
0
 10
93.97329163
 20
-19.73368103
  0
VERTEX
  8
0
 10
94.56702771
 20
-18.97814278
  0
VERTEX
  8
0
 10
95.19563751
 20
-18.25245168
  0
VERTEX
  8
0
 10
95.85786438
 20
-17.55786438
  0
VERTEX
  8
0
 10
96.55245168
 20
-16.89563751
  0
VERTEX
  8
0
 10
97.27814278
 20
-16.26702771
  0
VERTEX
  8
0
 10
98.03368103
 20
-15.67329163
  0
VERTEX
  8
0
 10
98.81780982
 20
-15.11568589
  0
VERTEX
  8
0
 10
99.62927248
 20
-14.59546713
  0
VERTEX
  8
0
 10
100.46681240
 20
-14.11389200
  0
VERTEX
  8
0
 10
101.32917292
 20
-13.67221712
  0
VERTEX
  8
0
 10
102.21509742
 20
-13.27169914
  0
VERTEX
  8
0
 10
103.12332926
 20
-12.91359469
  0
VERTEX
  8
0
 10
104.05261179
 20
-12.59916041
  0
VERTEX
  8
0
 10
105.00168839
 20
-12.32965294
  0
VERTEX
  8
0
 10
105.96930241
 20
-12.10632892
  0
VERTEX
  8
0
 10
106.95419722
 20
-11.93044497
  0
VERTEX
  8
0
 10
107.95511618
 20
-11.80325775
  0
VERTEX
  8
0
 10
108.97080265
 20
-11.72602388
  0
VERTEX
  8
0
 10
110.00000000
 20
-11.70000000
  0
VERTEX
  8
0
 10
111.02919735
 20
-11.72602388
  0
VERTEX
  8
0
 10
112.04488382
 20
-11.80325775
  0
VERTEX
  8
0
 10
113.04580278
 20
-11.93044497
  0
VERTEX
  8
0
 10
114.03069759
 20
-12.10632892
  0
VERTEX
  8
0
 10
114.99831161
 20
-12.32965294
  0
VERTEX
  8
0
 10
115.94738821
 20
-12.59916041
  0
VERTEX
  8
0
 10
116.87667074
 20
-12.91359469
  0
VERTEX
  8
0
 10
117.78490258
 20
-13.27169914
  0
VERTEX
  8
0
 10
118.67082708
 20
-13.67221712
  0
VERTEX
  8
0
 10
119.53318760
 20
-14.11389200
  0
VERTEX
  8
0
 10
120.37072752
 20
-14.59546713
  0
VERTEX
  8
0
 10
121.18219018
 20
-15.11568589
  0
VERTEX
  8
0
 10
121.96631897
 20
-15.67329163
  0
VERTEX
  8
0
 10
122.72185722
 20
-16.26702771
  0
VERTEX
  8
0
 10
123.44754832
 20
-16.89563751
  0
VERTEX
  8
0
 10
124.14213562
 20
-17.55786438
  0
VERTEX
  8
0
 10
124.80436249
 20
-18.25245168
  0
VERTEX
  8
0
 10
125.43297229
 20
-18.97814278
  0
VERTEX
  8
0
 10
126.02670837
 20
-19.73368103
  0
VERTEX
  8
0
 10
126.58431411
 20
-20.51780982
  0
VERTEX
  8
0
 10
127.10453287
 20
-21.32927248
  0
VERTEX
  8
0
 10
127.58610800
 20
-22.16681240
  0
VERTEX
  8
0
 10
128.02778288
 20
-23.02917292
  0
VERTEX
  8
0
 10
128.42830086
 20
-23.91509742
  0
VERTEX
  8
0
 10
128.78640531
 20
-24.82332926
  0
VERTEX
  8
0
 10
129.10083959
 20
-25.75261179
  0
VERTEX
  8
0
 10
129.37034706
 20
-26.70168839
  0
VERTEX
  8
0
 10
129.59367108
 20
-27.66930241
  0
VERTEX
  8
0
 10
129.76955503
 20
-28.65419722
  0
VERTEX
  8
0
 10
129.89674225
 20
-29.65511618
  0
VERTEX
  8
0
 10
129.97397612
 20
-30.67080265
  0
VERTEX
  8
0
 10
130.00000000
 20
-31.70000000
  0
VERTEX
  8
0
 10
129.97397612
 20
-32.72919735
  0
VERTEX
  8
0
 10
129.89674225
 20
-33.74488382
  0
VERTEX
  8
0
 10
129.76955503
 20
-34.74580278
  0
VERTEX
  8
0
 10
129.59367108
 20
-35.73069759
  0
VERTEX
  8
0
 10
129.37034706
 20
-36.69831161
  0
VERTEX
  8
0
 10
129.10083959
 20
-37.64738821
  0
VERTEX
  8
0
 10
128.78640531
 20
-38.57667074
  0
VERTEX
  8
0
 10
128.42830086
 20
-39.48490258
  0
VERTEX
  8
0
 10
128.02778288
 20
-40.37082708
  0
VERTEX
  8
0
 10
127.58610800
 20
-41.23318760
  0
VERTEX
  8
0
 10
127.10453287
 20
-42.07072752
  0
VERTEX
  8
0
 10
126.58431411
 20
-42.88219018
  0
VERTEX
  8
0
 10
126.02670837
 20
-43.66631897
  0
VERTEX
  8
0
 10
125.43297229
 20
-44.42185722
  0
VERTEX
  8
0
 10
124.80436249
 20
-45.14754832
  0
VERTEX
  8
0
 10
124.14213562
 20
-45.84213562
  0
VERTEX
  8
0
 10
123.44754832
 20
-46.50436249
  0
VERTEX
  8
0
 10
122.72185722
 20
-47.13297229
  0
VERTEX
  8
0
 10
121.96631897
 20
-47.72670837
  0
VERTEX
  8
0
 10
121.18219018
 20
-48.28431411
  0
VERTEX
  8
0
 10
120.37072752
 20
-48.80453287
  0
VERTEX
  8
0
 10
119.53318760
 20
-49.28610800
  0
VERTEX
  8
0
 10
118.67082708
 20
-49.72778288
  0
VERTEX
  8
0
 10
117.78490258
 20
-50.12830086
  0
VERTEX
  8
0
 10
116.87667074
 20
-50.48640531
  0
VERTEX
  8
0
 10
115.94738821
 20
-50.80083959
  0
VERTEX
  8
0
 10
114.99831161
 20
-51.07034706
  0
VERTEX
  8
0
 10
114.03069759
 20
-51.29367108
  0
VERTEX
  8
0
 10
113.04580278
 20
-51.46955503
  0
VERTEX
  8
0
 10
112.04488382
 20
-51.59674225
  0
VERTEX
  8
0
 10
111.02919735
 20
-51.67397612
  0
VERTEX
  8
0
 10
110.00000000
 20
-51.70000000
  0
VERTEX
  8
0
 10
108.97080265
 20
-51.67397612
  0
VERTEX
  8
0
 10
107.95511618
 20
-51.59674225
  0
VERTEX
  8
0
 10
106.95419722
 20
-51.46955503
  0
VERTEX
  8
0
 10
105.96930241
 20
-51.29367108
  0
VERTEX
  8
0
 10
105.00168839
 20
-51.07034706
  0
VERTEX
  8
0
 10
104.05261179
 20
-50.80083959
  0
VERTEX
  8
0
 10
103.12332926
 20
-50.48640531
  0
VERTEX
  8
0
 10
102.21509742
 20
-50.12830086
  0
VERTEX
  8
0
 10
101.32917292
 20
-49.72778288
  0
VERTEX
  8
0
 10
100.46681240
 20
-49.28610800
  0
VERTEX
  8
0
 10
99.62927248
 20
-48.80453287
  0
VERTEX
  8
0
 10
98.81780982
 20
-48.28431411
  0
VERTEX
  8
0
 10
98.03368103
 20
-47.72670837
  0
VERTEX
  8
0
 10
97.27814278
 20
-47.13297229
  0
VERTEX
  8
0
 10
96.55245168
 20
-46.50436249
  0
VERTEX
  8
0
 10
95.85786438
 20
-45.84213562
  0
VERTEX
  8
0
 10
95.19563751
 20
-45.14754832
  0
VERTEX
  8
0
 10
94.56702771
 20
-44.42185722
  0
VERTEX
  8
0
 10
93.97329163
 20
-43.66631897
  0
VERTEX
  8
0
 10
93.41568589
 20
-42.88219018
  0
VERTEX
  8
0
 10
92.89546713
 20
-42.07072752
  0
VERTEX
  8
0
 10
92.41389200
 20
-41.23318760
  0
VERTEX
  8
0
 10
91.97221712
 20
-40.37082708
  0
VERTEX
  8
0
 10
91.57169914
 20
-39.48490258
  0
VERTEX
  8
0
 10
91.21359469
 20
-38.57667074
  0
VERTEX
  8
0
 10
90.89916041
 20
-37.64738821
  0
VERTEX
  8
0
 10
90.62965294
 20
-36.69831161
  0
VERTEX
  8
0
 10
90.40632892
 20
-35.73069759
  0
VERTEX
  8
0
 10
90.23044497
 20
-34.74580278
  0
VERTEX
  8
0
 10
90.10325775
 20
-33.74488382
  0
VERTEX
  8
0
 10
90.02602388
 20
-32.72919735
  0
VERTEX
  8
0
 10
90.00000000
 20
-31.70000000
  0
SEQEND
  0
POLYLINE
  8
Capa por Defecto
 66
   1
 39
0.000000
 70
    1
  0
VERTEX
  8
0
 10
145.00000000
 20
-31.70000000
  0
VERTEX
  8
0
 10
145.02602388
 20
-30.67080265
  0
VERTEX
  8
0
 10
145.10325775
 20
-29.65511618
  0
VERTEX
  8
0
 10
145.23044497
 20
-28.65419722
  0
VERTEX
  8
0
 10
145.40632892
 20
-27.66930241
  0
VERTEX
  8
0
 10
145.62965294
 20
-26.70168839
  0
VERTEX
  8
0
 10
145.89916041
 20
-25.75261179
  0
VERTEX
  8
0
 10
146.21359469
 20
-24.82332926
  0
VERTEX
  8
0
 10
146.57169914
 20
-23.91509742
  0
VERTEX
  8
0
 10
146.97221712
 20
-23.02917292
  0
VERTEX
  8
0
 10
147.41389200
 20
-22.16681240
  0
VERTEX
  8
0
 10
147.89546713
 20
-21.32927248
  0
VERTEX
  8
0
 10
148.41568589
 20
-20.51780982
  0
VERTEX
  8
0
 10
148.97329163
 20
-19.73368103
  0
VERTEX
  8
0
 10
149.56702771
 20
-18.97814278
  0
VERTEX
  8
0
 10
150.19563751
 20
-18.25245168
  0
VERTEX
  8
0
 10
150.85786438
 20
-17.55786438
  0
VERTEX
  8
0
 10
151.55245168
 20
-16.89563751
  0
VERTEX
  8
0
 10
152.27814278
 20
-16.26702771
  0
VERTEX
  8
0
 10
153.03368103
 20
-15.67329163
  0
VERTEX
  8
0
 10
153.81780982
 20
-15.11568589
  0
VERTEX
  8
0
 10
154.62927248
 20
-14.59546713
  0
VERTEX
  8
0
 10
155.46681240
 20
-14.11389200
  0
VERTEX
  8
0
 10
156.32917292
 20
-13.67221712
  0
VERTEX
  8
0
 10
157.21509742
 20
-13.27169914
  0
VERTEX
  8
0
 10
158.12332926
 20
-12.91359469
  0
VERTEX
  8
0
 10
159.05261179
 20
-12.59916041
  0
VERTEX
  8
0
 10
160.00168839
 20
-12.32965294
  0
VERTEX
  8
0
 10
160.96930241
 20
-12.10632892
  0
VERTEX
  8
0
 10
161.95419722
 20
-11.93044497
  0
VERTEX
  8
0
 10
162.95511618
 20
-11.80325775
  0
VERTEX
  8
0
 10
163.97080265
 20
-11.72602388
  0
VERTEX
  8
0
 10
165.00000000
 20
-11.70000000
  0
VERTEX
  8
0
 10
166.02919735
 20
-11.72602388
  0
VERTEX
  8
0
 10
167.04488382
 20
-11.80325775
  0
VERTEX
  8
0
 10
168.04580278
 20
-11.93044497
  0
VERTEX
  8
0
 10
169.03069759
 20
-12.10632892
  0
VERTEX
  8
0
 10
169.99831161
 20
-12.32965294
  0
VERTEX
  8
0
 10
170.94738821
 20
-12.59916041
  0
VERTEX
  8
0
 10
171.87667074
 20
-12.91359469
  0
VERTEX
  8
0
 10
172.78490258
 20
-13.27169914
  0
VERTEX
  8
0
 10
173.67082708
 20
-13.67221712
  0
VERTEX
  8
0
 10
174.53318760
 20
-14.11389200
  0
VERTEX
  8
0
 10
175.37072752
 20
-14.59546713
  0
VERTEX
  8
0
 10
176.18219018
 20
-15.11568589
  0
VERTEX
  8
0
 10
176.96631897
 20
-15.67329163
  0
VERTEX
  8
0
 10
177.72185722
 20
-16.26702771
  0
VERTEX
  8
0
 10
178.44754832
 20
-16.89563751
  0
VERTEX
  8
0
 10
179.14213562
 20
-17.55786438
  0
VERTEX
  8
0
 10
179.80436249
 20
-18.25245168
  0
VERTEX
  8
0
 10
180.43297229
 20
-18.97814278
  0
VERTEX
  8
0
 10
181.02670837
 20
-19.73368103
  0
VERTEX
  8
0
 10
181.58431411
 20
-20.51780982
  0
VERTEX
  8
0
 10
182.10453287
 20
-21.32927248
  0
VERTEX
  8
0
 10
182.58610800
 20
-22.16681240
  0
VERTEX
  8
0
 10
183.02778288
 20
-23.02917292
  0
VERTEX
  8
0
 10
183.42830086
 20
-23.91509742
  0
VERTEX
  8
0
 10
183.78640531
 20
-24.82332926
  0
VERTEX
  8
0
 10
184.10083959
 20
-25.75261179
  0
VERTEX
  8
0
 10
184.37034706
 20
-26.70168839
  0
VERTEX
  8
0
 10
184.59367108
 20
-27.66930241
  0
VERTEX
  8
0
 10
184.76955503
 20
-28.65419722
  0
VERTEX
  8
0
 10
184.89674225
 20
-29.65511618
  0
VERTEX
  8
0
 10
184.97397612
 20
-30.67080265
  0
VERTEX
  8
0
 10
185.00000000
 20
-31.70000000
  0
VERTEX
  8
0
 10
184.97397612
 20
-32.72919735
  0
VERTEX
  8
0
 10
184.89674225
 20
-33.74488382
  0
VERTEX
  8
0
 10
184.76955503
 20
-34.74580278
  0
VERTEX
  8
0
 10
184.59367108
 20
-35.73069759
  0
VERTEX
  8
0
 10
184.37034706
 20
-36.69831161
  0
VERTEX
  8
0
 10
184.10083959
 20
-37.64738821
  0
VERTEX
  8
0
 10
183.78640531
 20
-38.57667074
  0
VERTEX
  8
0
 10
183.42830086
 20
-39.48490258
  0
VERTEX
  8
0
 10
183.02778288
 20
-40.37082708
  0
VERTEX
  8
0
 10
182.58610800
 20
-41.23318760
  0
VERTEX
  8
0
 10
182.10453287
 20
-42.07072752
  0
VERTEX
  8
0
 10
181.58431411
 20
-42.88219018
  0
VERTEX
  8
0
 10
181.02670837
 20
-43.66631897
  0
VERTEX
  8
0
 10
180.43297229
 20
-44.42185722
  0
VERTEX
  8
0
 10
179.80436249
 20
-45.14754832
  0
VERTEX
  8
0
 10
179.14213562
 20
-45.84213562
  0
VERTEX
  8
0
 10
178.44754832
 20
-46.50436249
  0
VERTEX
  8
0
 10
177.72185722
 20
-47.13297229
  0
VERTEX
  8
0
 10
176.96631897
 20
-47.72670837
  0
VERTEX
  8
0
 10
176.18219018
 20
-48.28431411
  0
VERTEX
  8
0
 10
175.37072752
 20
-48.80453287
  0
VERTEX
  8
0
 10
174.53318760
 20
-49.28610800
  0
VERTEX
  8
0
 10
173.67082708
 20
-49.72778288
  0
VERTEX
  8
0
 10
172.78490258
 20
-50.12830086
  0
VERTEX
  8
0
 10
171.87667074
 20
-50.48640531
  0
VERTEX
  8
0
 10
170.94738821
 20
-50.80083959
  0
VERTEX
  8
0
 10
169.99831161
 20
-51.07034706
  0
VERTEX
  8
0
 10
169.03069759
 20
-51.29367108
  0
VERTEX
  8
0
 10
168.04580278
 20
-51.46955503
  0
VERTEX
  8
0
 10
167.04488382
 20
-51.59674225
  0
VERTEX
  8
0
 10
166.02919735
 20
-51.67397612
  0
VERTEX
  8
0
 10
165.00000000
 20
-51.70000000
  0
VERTEX
  8
0
 10
163.97080265
 20
-51.67397612
  0
VERTEX
  8
0
 10
162.95511618
 20
-51.59674225
  0
VERTEX
  8
0
 10
161.95419722
 20
-51.46955503
  0
VERTEX
  8
0
 10
160.96930241
 20
-51.29367108
  0
VERTEX
  8
0
 10
160.00168839
 20
-51.07034706
  0
VERTEX
  8
0
 10
159.05261179
 20
-50.80083959
  0
VERTEX
  8
0
 10
158.12332926
 20
-50.48640531
  0
VERTEX
  8
0
 10
157.21509742
 20
-50.12830086
  0
VERTEX
  8
0
 10
156.32917292
 20
-49.72778288
  0
VERTEX
  8
0
 10
155.46681240
 20
-49.28610800
  0
VERTEX
  8
0
 10
154.62927248
 20
-48.80453287
  0
VERTEX
  8
0
 10
153.81780982
 20
-48.28431411
  0
VERTEX
  8
0
 10
153.03368103
 20
-47.72670837
  0
VERTEX
  8
0
 10
152.27814278
 20
-47.13297229
  0
VERTEX
  8
0
 10
151.55245168
 20
-46.50436249
  0
VERTEX
  8
0
 10
150.85786438
 20
-45.84213562
  0
VERTEX
  8
0
 10
150.19563751
 20
-45.14754832
  0
VERTEX
  8
0
 10
149.56702771
 20
-44.42185722
  0
VERTEX
  8
0
 10
148.97329163
 20
-43.66631897
  0
VERTEX
  8
0
 10
148.41568589
 20
-42.88219018
  0
VERTEX
  8
0
 10
147.89546713
 20
-42.07072752
  0
VERTEX
  8
0
 10
147.41389200
 20
-41.23318760
  0
VERTEX
  8
0
 10
146.97221712
 20
-40.37082708
  0
VERTEX
  8
0
 10
146.57169914
 20
-39.48490258
  0
VERTEX
  8
0
 10
146.21359469
 20
-38.57667074
  0
VERTEX
  8
0
 10
145.89916041
 20
-37.64738821
  0
VERTEX
  8
0
 10
145.62965294
 20
-36.69831161
  0
VERTEX
  8
0
 10
145.40632892
 20
-35.73069759
  0
VERTEX
  8
0
 10
145.23044497
 20
-34.74580278
  0
VERTEX
  8
0
 10
145.10325775
 20
-33.74488382
  0
VERTEX
  8
0
 10
145.02602388
 20
-32.72919735
  0
VERTEX
  8
0
 10
145.00000000
 20
-31.70000000
  0
SEQEND
  0
POLYLINE
  8
Capa por Defecto
 66
   1
 39
0.000000
 70
    1
  0
VERTEX
  8
0
 10
-185.00000000
 20
31.70000000
  0
VERTEX
  8
0
 10
-184.97397612
 20
30.67080265
  0
VERTEX
  8
0
 10
-184.89674225
 20
29.65511618
  0
VERTEX
  8
0
 10
-184.76955503
 20
28.65419722
  0
VERTEX
  8
0
 10
-184.59367108
 20
27.66930241
  0
VERTEX
  8
0
 10
-184.37034706
 20
26.70168839
  0
VERTEX
  8
0
 10
-184.10083959
 20
25.75261179
  0
VERTEX
  8
0
 10
-183.78640531
 20
24.82332926
  0
VERTEX
  8
0
 10
-183.42830086
 20
23.91509742
  0
VERTEX
  8
0
 10
-183.02778288
 20
23.02917292
  0
VERTEX
  8
0
 10
-182.58610800
 20
22.16681240
  0
VERTEX
  8
0
 10
-182.10453287
 20
21.32927248
  0
VERTEX
  8
0
 10
-181.58431411
 20
20.51780982
  0
VERTEX
  8
0
 10
-181.02670837
 20
19.73368103
  0
VERTEX
  8
0
 10
-180.43297229
 20
18.97814278
  0
VERTEX
  8
0
 10
-179.80436249
 20
18.25245168
  0
VERTEX
  8
0
 10
-179.14213562
 20
17.55786438
  0
VERTEX
  8
0
 10
-178.44754832
 20
16.89563751
  0
VERTEX
  8
0
 10
-177.72185722
 20
16.26702771
  0
VERTEX
  8
0
 10
-176.96631897
 20
15.67329163
  0
VERTEX
  8
0
 10
-176.18219018
 20
15.11568589
  0
VERTEX
  8
0
 10
-175.37072752
 20
14.59546713
  0
VERTEX
  8
0
 10
-174.53318760
 20
14.11389200
  0
VERTEX
  8
0
 10
-173.67082708
 20
13.67221712
  0
VERTEX
  8
0
 10
-172.78490258
 20
13.27169914
  0
VERTEX
  8
0
 10
-171.87667074
 20
12.91359469
  0
VERTEX
  8
0
 10
-170.94738821
 20
12.59916041
  0
VERTEX
  8
0
 10
-169.99831161
 20
12.32965294
  0
VERTEX
  8
0
 10
-169.03069759
 20
12.10632892
  0
VERTEX
  8
0
 10
-168.04580278
 20
11.93044497
  0
VERTEX
  8
0
 10
-167.04488382
 20
11.80325775
  0
VERTEX
  8
0
 10
-166.02919735
 20
11.72602388
  0
VERTEX
  8
0
 10
-165.00000000
 20
11.70000000
  0
VERTEX
  8
0
 10
-163.97080265
 20
11.72602388
  0
VERTEX
  8
0
 10
-162.95511618
 20
11.80325775
  0
VERTEX
  8
0
 10
-161.95419722
 20
11.93044497
  0
VERTEX
  8
0
 10
-160.96930241
 20
12.10632892
  0
VERTEX
  8
0
 10
-160.00168839
 20
12.32965294
  0
VERTEX
  8
0
 10
-159.05261179
 20
12.59916041
  0
VERTEX
  8
0
 10
-158.12332926
 20
12.91359469
  0
VERTEX
  8
0
 10
-157.21509742
 20
13.27169914
  0
VERTEX
  8
0
 10
-156.32917292
 20
13.67221712
  0
VERTEX
  8
0
 10
-155.46681240
 20
14.11389200
  0
VERTEX
  8
0
 10
-154.62927248
 20
14.59546713
  0
VERTEX
  8
0
 10
-153.81780982
 20
15.11568589
  0
VERTEX
  8
0
 10
-153.03368103
 20
15.67329163
  0
VERTEX
  8
0
 10
-152.27814278
 20
16.26702771
  0
VERTEX
  8
0
 10
-151.55245168
 20
16.89563751
  0
VERTEX
  8
0
 10
-150.85786438
 20
17.55786438
  0
VERTEX
  8
0
 10
-150.19563751
 20
18.25245168
  0
VERTEX
  8
0
 10
-149.56702771
 20
18.97814278
  0
VERTEX
  8
0
 10
-148.97329163
 20
19.73368103
  0
VERTEX
  8
0
 10
-148.41568589
 20
20.51780982
  0
VERTEX
  8
0
 10
-147.89546713
 20
21.32927248
  0
VERTEX
  8
0
 10
-147.41389200
 20
22.16681240
  0
VERTEX
  8
0
 10
-146.97221712
 20
23.02917292
  0
VERTEX
  8
0
 10
-146.57169914
 20
23.91509742
  0
VERTEX
  8
0
 10
-146.21359469
 20
24.82332926
  0
VERTEX
  8
0
 10
-145.89916041
 20
25.75261179
  0
VERTEX
  8
0
 10
-145.62965294
 20
26.70168839
  0
VERTEX
  8
0
 10
-145.40632892
 20
27.66930241
  0
VERTEX
  8
0
 10
-145.23044497
 20
28.65419722
  0
VERTEX
  8
0
 10
-145.10325775
 20
29.65511618
  0
VERTEX
  8
0
 10
-145.02602388
 20
30.67080265
  0
VERTEX
  8
0
 10
-145.00000000
 20
31.70000000
  0
VERTEX
  8
0
 10
-145.02602388
 20
32.72919735
  0
VERTEX
  8
0
 10
-145.10325775
 20
33.74488382
  0
VERTEX
  8
0
 10
-145.23044497
 20
34.74580278
  0
VERTEX
  8
0
 10
-145.40632892
 20
35.73069759
  0
VERTEX
  8
0
 10
-145.62965294
 20
36.69831161
  0
VERTEX
  8
0
 10
-145.89916041
 20
37.64738821
  0
VERTEX
  8
0
 10
-146.21359469
 20
38.57667074
  0
VERTEX
  8
0
 10
-146.57169914
 20
39.48490258
  0
VERTEX
  8
0
 10
-146.97221712
 20
40.37082708
  0
VERTEX
  8
0
 10
-147.41389200
 20
41.23318760
  0
VERTEX
  8
0
 10
-147.89546713
 20
42.07072752
  0
VERTEX
  8
0
 10
-148.41568589
 20
42.88219018
  0
VERTEX
  8
0
 10
-148.97329163
 20
43.66631897
  0
VERTEX
  8
0
 10
-149.56702771
 20
44.42185722
  0
VERTEX
  8
0
 10
-150.19563751
 20
45.14754832
  0
VERTEX
  8
0
 10
-150.85786438
 20
45.84213562
  0
VERTEX
  8
0
 10
-151.55245168
 20
46.50436249
  0
VERTEX
  8
0
 10
-152.27814278
 20
47.13297229
  0
VERTEX
  8
0
 10
-153.03368103
 20
47.72670837
  0
VERTEX
  8
0
 10
-153.81780982
 20
48.28431411
  0
VERTEX
  8
0
 10
-154.62927248
 20
48.80453287
  0
VERTEX
  8
0
 10
-155.46681240
 20
49.28610800
  0
VERTEX
  8
0
 10
-156.32917292
 20
49.72778288
  0
VERTEX
  8
0
 10
-157.21509742
 20
50.12830086
  0
VERTEX
  8
0
 10
-158.12332926
 20
50.48640531
  0
VERTEX
  8
0
 10
-159.05261179
 20
50.80083959
  0
VERTEX
  8
0
 10
-160.00168839
 20
51.07034706
  0
VERTEX
  8
0
 10
-160.96930241
 20
51.29367108
  0
VERTEX
  8
0
 10
-161.95419722
 20
51.46955503
  0
VERTEX
  8
0
 10
-162.95511618
 20
51.59674225
  0
VERTEX
  8
0
 10
-163.97080265
 20
51.67397612
  0
VERTEX
  8
0
 10
-165.00000000
 20
51.70000000
  0
VERTEX
  8
0
 10
-166.02919735
 20
51.67397612
  0
VERTEX
  8
0
 10
-167.04488382
 20
51.59674225
  0
VERTEX
  8
0
 10
-168.04580278
 20
51.46955503
  0
VERTEX
  8
0
 10
-169.03069759
 20
51.29367108
  0
VERTEX
  8
0
 10
-169.99831161
 20
51.07034706
  0
VERTEX
  8
0
 10
-170.94738821
 20
50.80083959
  0
VERTEX
  8
0
 10
-171.87667074
 20
50.48640531
  0
VERTEX
  8
0
 10
-172.78490258
 20
50.12830086
  0
VERTEX
  8
0
 10
-173.67082708
 20
49.72778288
  0
VERTEX
  8
0
 10
-174.53318760
 20
49.28610800
  0
VERTEX
  8
0
 10
-175.37072752
 20
48.80453287
  0
VERTEX
  8
0
 10
-176.18219018
 20
48.28431411
  0
VERTEX
  8
0
 10
-176.96631897
 20
47.72670837
  0
VERTEX
  8
0
 10
-177.72185722
 20
47.13297229
  0
VERTEX
  8
0
 10
-178.44754832
 20
46.50436249
  0
VERTEX
  8
0
 10
-179.14213562
 20
45.84213562
  0
VERTEX
  8
0
 10
-179.80436249
 20
45.14754832
  0
VERTEX
  8
0
 10
-180.43297229
 20
44.42185722
  0
VERTEX
  8
0
 10
-181.02670837
 20
43.66631897
  0
VERTEX
  8
0
 10
-181.58431411
 20
42.88219018
  0
VERTEX
  8
0
 10
-182.10453287
 20
42.07072752
  0
VERTEX
  8
0
 10
-182.58610800
 20
41.23318760
  0
VERTEX
  8
0
 10
-183.02778288
 20
40.37082708
  0
VERTEX
  8
0
 10
-183.42830086
 20
39.48490258
  0
VERTEX
  8
0
 10
-183.78640531
 20
38.57667074
  0
VERTEX
  8
0
 10
-184.10083959
 20
37.64738821
  0
VERTEX
  8
0
 10
-184.37034706
 20
36.69831161
  0
VERTEX
  8
0
 10
-184.59367108
 20
35.73069759
  0
VERTEX
  8
0
 10
-184.76955503
 20
34.74580278
  0
VERTEX
  8
0
 10
-184.89674225
 20
33.74488382
  0
VERTEX
  8
0
 10
-184.97397612
 20
32.72919735
  0
VERTEX
  8
0
 10
-185.00000000
 20
31.70000000
  0
SEQEND
  0
POLYLINE
  8
Capa por Defecto
 66
   1
 39
0.000000
 70
    1
  0
VERTEX
  8
0
 10
-130.00000000
 20
31.70000000
  0
VERTEX
  8
0
 10
-129.97397612
 20
30.67080265
  0
VERTEX
  8
0
 10
-129.89674225
 20
29.65511618
  0
VERTEX
  8
0
 10
-129.76955503
 20
28.65419722
  0
VERTEX
  8
0
 10
-129.59367108
 20
27.66930241
  0
VERTEX
  8
0
 10
-129.37034706
 20
26.70168839
  0
VERTEX
  8
0
 10
-129.10083959
 20
25.75261179
  0
VERTEX
  8
0
 10
-128.78640531
 20
24.82332926
  0
VERTEX
  8
0
 10
-128.42830086
 20
23.91509742
  0
VERTEX
  8
0
 10
-128.02778288
 20
23.02917292
  0
VERTEX
  8
0
 10
-127.58610800
 20
22.16681240
  0
VERTEX
  8
0
 10
-127.10453287
 20
21.32927248
  0
VERTEX
  8
0
 10
-126.58431411
 20
20.51780982
  0
VERTEX
  8
0
 10
-126.02670837
 20
19.73368103
  0
VERTEX
  8
0
 10
-125.43297229
 20
18.97814278
  0
VERTEX
  8
0
 10
-124.80436249
 20
18.25245168
  0
VERTEX
  8
0
 10
-124.14213562
 20
17.55786438
  0
VERTEX
  8
0
 10
-123.44754832
 20
16.89563751
  0
VERTEX
  8
0
 10
-122.72185722
 20
16.26702771
  0
VERTEX
  8
0
 10
-121.96631897
 20
15.67329163
  0
VERTEX
  8
0
 10
-121.18219018
 20
15.11568589
  0
VERTEX
  8
0
 10
-120.37072752
 20
14.59546713
  0
VERTEX
  8
0
 10
-119.53318760
 20
14.11389200
  0
VERTEX
  8
0
 10
-118.67082708
 20
13.67221712
  0
VERTEX
  8
0
 10
-117.78490258
 20
13.27169914
  0
VERTEX
  8
0
 10
-116.87667074
 20
12.91359469
  0
VERTEX
  8
0
 10
-115.94738821
 20
12.59916041
  0
VERTEX
  8
0
 10
-114.99831161
 20
12.32965294
  0
VERTEX
  8
0
 10
-114.03069759
 20
12.10632892
  0
VERTEX
  8
0
 10
-113.04580278
 20
11.93044497
  0
VERTEX
  8
0
 10
-112.04488382
 20
11.80325775
  0
VERTEX
  8
0
 10
-111.02919735
 20
11.72602388
  0
VERTEX
  8
0
 10
-110.00000000
 20
11.70000000
  0
VERTEX
  8
0
 10
-108.97080265
 20
11.72602388
  0
VERTEX
  8
0
 10
-107.95511618
 20
11.80325775
  0
VERTEX
  8
0
 10
-106.95419722
 20
11.93044497
  0
VERTEX
  8
0
 10
-105.96930241
 20
12.10632892
  0
VERTEX
  8
0
 10
-105.00168839
 20
12.32965294
  0
VERTEX
  8
0
 10
-104.05261179
 20
12.59916041
  0
VERTEX
  8
0
 10
-103.12332926
 20
12.91359469
  0
VERTEX
  8
0
 10
-102.21509742
 20
13.27169914
  0
VERTEX
  8
0
 10
-101.32917292
 20
13.67221712
  0
VERTEX
  8
0
 10
-100.46681240
 20
14.11389200
  0
VERTEX
  8
0
 10
-99.62927248
 20
14.59546713
  0
VERTEX
  8
0
 10
-98.81780982
 20
15.11568589
  0
VERTEX
  8
0
 10
-98.03368103
 20
15.67329163
  0
VERTEX
  8
0
 10
-97.27814278
 20
16.26702771
  0
VERTEX
  8
0
 10
-96.55245168
 20
16.89563751
  0
VERTEX
  8
0
 10
-95.85786438
 20
17.55786438
  0
VERTEX
  8
0
 10
-95.19563751
 20
18.25245168
  0
VERTEX
  8
0
 10
-94.56702771
 20
18.97814278
  0
VERTEX
  8
0
 10
-93.97329163
 20
19.73368103
  0
VERTEX
  8
0
 10
-93.41568589
 20
20.51780982
  0
VERTEX
  8
0
 10
-92.89546713
 20
21.32927248
  0
VERTEX
  8
0
 10
-92.41389200
 20
22.16681240
  0
VERTEX
  8
0
 10
-91.97221712
 20
23.02917292
  0
VERTEX
  8
0
 10
-91.57169914
 20
23.91509742
  0
VERTEX
  8
0
 10
-91.21359469
 20
24.82332926
  0
VERTEX
  8
0
 10
-90.89916041
 20
25.75261179
  0
VERTEX
  8
0
 10
-90.62965294
 20
26.70168839
  0
VERTEX
  8
0
 10
-90.40632892
 20
27.66930241
  0
VERTEX
  8
0
 10
-90.23044497
 20
28.65419722
  0
VERTEX
  8
0
 10
-90.10325775
 20
29.65511618
  0
VERTEX
  8
0
 10
-90.02602388
 20
30.67080265
  0
VERTEX
  8
0
 10
-90.00000000
 20
31.70000000
  0
VERTEX
  8
0
 10
-90.02602388
 20
32.72919735
  0
VERTEX
  8
0
 10
-90.10325775
 20
33.74488382
  0
VERTEX
  8
0
 10
-90.23044497
 20
34.74580278
  0
VERTEX
  8
0
 10
-90.40632892
 20
35.73069759
  0
VERTEX
  8
0
 10
-90.62965294
 20
36.69831161
  0
VERTEX
  8
0
 10
-90.89916041
 20
37.64738821
  0
VERTEX
  8
0
 10
-91.21359469
 20
38.57667074
  0
VERTEX
  8
0
 10
-91.57169914
 20
39.48490258
  0
VERTEX
  8
0
 10
-91.97221712
 20
40.37082708
  0
VERTEX
  8
0
 10
-92.41389200
 20
41.23318760
  0
VERTEX
  8
0
 10
-92.89546713
 20
42.07072752
  0
VERTEX
  8
0
 10
-93.41568589
 20
42.88219018
  0
VERTEX
  8
0
 10
-93.97329163
 20
43.66631897
  0
VERTEX
  8
0
 10
-94.56702771
 20
44.42185722
  0
VERTEX
  8
0
 10
-95.19563751
 20
45.14754832
  0
VERTEX
  8
0
 10
-95.85786438
 20
45.84213562
  0
VERTEX
  8
0
 10
-96.55245168
 20
46.50436249
  0
VERTEX
  8
0
 10
-97.27814278
 20
47.13297229
  0
VERTEX
  8
0
 10
-98.03368103
 20
47.72670837
  0
VERTEX
  8
0
 10
-98.81780982
 20
48.28431411
  0
VERTEX
  8
0
 10
-99.62927248
 20
48.80453287
  0
VERTEX
  8
0
 10
-100.46681240
 20
49.28610800
  0
VERTEX
  8
0
 10
-101.32917292
 20
49.72778288
  0
VERTEX
  8
0
 10
-102.21509742
 20
50.12830086
  0
VERTEX
  8
0
 10
-103.12332926
 20
50.48640531
  0
VERTEX
  8
0
 10
-104.05261179
 20
50.80083959
  0
VERTEX
  8
0
 10
-105.00168839
 20
51.07034706
  0
VERTEX
  8
0
 10
-105.96930241
 20
51.29367108
  0
VERTEX
  8
0
 10
-106.95419722
 20
51.46955503
  0
VERTEX
  8
0
 10
-107.95511618
 20
51.59674225
  0
VERTEX
  8
0
 10
-108.97080265
 20
51.67397612
  0
VERTEX
  8
0
 10
-110.00000000
 20
51.70000000
  0
VERTEX
  8
0
 10
-111.02919735
 20
51.67397612
  0
VERTEX
  8
0
 10
-112.04488382
 20
51.59674225
  0
VERTEX
  8
0
 10
-113.04580278
 20
51.46955503
  0
VERTEX
  8
0
 10
-114.03069759
 20
51.29367108
  0
VERTEX
  8
0
 10
-114.99831161
 20
51.07034706
  0
VERTEX
  8
0
 10
-115.94738821
 20
50.80083959
  0
VERTEX
  8
0
 10
-116.87667074
 20
50.48640531
  0
VERTEX
  8
0
 10
-117.78490258
 20
50.12830086
  0
VERTEX
  8
0
 10
-118.67082708
 20
49.72778288
  0
VERTEX
  8
0
 10
-119.53318760
 20
49.28610800
  0
VERTEX
  8
0
 10
-120.37072752
 20
48.80453287
  0
VERTEX
  8
0
 10
-121.18219018
 20
48.28431411
  0
VERTEX
  8
0
 10
-121.96631897
 20
47.72670837
  0
VERTEX
  8
0
 10
-122.72185722
 20
47.13297229
  0
VERTEX
  8
0
 10
-123.44754832
 20
46.50436249
  0
VERTEX
  8
0
 10
-124.14213562
 20
45.84213562
  0
VERTEX
  8
0
 10
-124.80436249
 20
45.14754832
  0
VERTEX
  8
0
 10
-125.43297229
 20
44.42185722
  0
VERTEX
  8
0
 10
-126.02670837
 20
43.66631897
  0
VERTEX
  8
0
 10
-126.58431411
 20
42.88219018
  0
VERTEX
  8
0
 10
-127.10453287
 20
42.07072752
  0
VERTEX
  8
0
 10
-127.58610800
 20
41.23318760
  0
VERTEX
  8
0
 10
-128.02778288
 20
40.37082708
  0
VERTEX
  8
0
 10
-128.42830086
 20
39.48490258
  0
VERTEX
  8
0
 10
-128.78640531
 20
38.57667074
  0
VERTEX
  8
0
 10
-129.10083959
 20
37.64738821
  0
VERTEX
  8
0
 10
-129.37034706
 20
36.69831161
  0
VERTEX
  8
0
 10
-129.59367108
 20
35.73069759
  0
VERTEX
  8
0
 10
-129.76955503
 20
34.74580278
  0
VERTEX
  8
0
 10
-129.89674225
 20
33.74488382
  0
VERTEX
  8
0
 10
-129.97397612
 20
32.72919735
  0
VERTEX
  8
0
 10
-130.00000000
 20
31.70000000
  0
SEQEND
  0
POLYLINE
  8
Capa por Defecto
 66
   1
 39
0.000000
 70
    1
  0
VERTEX
  8
0
 10
-75.00000000
 20
31.70000000
  0
VERTEX
  8
0
 10
-74.97397612
 20
30.67080265
  0
VERTEX
  8
0
 10
-74.89674225
 20
29.65511618
  0
VERTEX
  8
0
 10
-74.76955503
 20
28.65419722
  0
VERTEX
  8
0
 10
-74.59367108
 20
27.66930241
  0
VERTEX
  8
0
 10
-74.37034706
 20
26.70168839
  0
VERTEX
  8
0
 10
-74.10083959
 20
25.75261179
  0
VERTEX
  8
0
 10
-73.78640531
 20
24.82332926
  0
VERTEX
  8
0
 10
-73.42830086
 20
23.91509742
  0
VERTEX
  8
0
 10
-73.02778288
 20
23.02917292
  0
VERTEX
  8
0
 10
-72.58610800
 20
22.16681240
  0
VERTEX
  8
0
 10
-72.10453287
 20
21.32927248
  0
VERTEX
  8
0
 10
-71.58431411
 20
20.51780982
  0
VERTEX
  8
0
 10
-71.02670837
 20
19.73368103
  0
VERTEX
  8
0
 10
-70.43297229
 20
18.97814278
  0
VERTEX
  8
0
 10
-69.80436249
 20
18.25245168
  0
VERTEX
  8
0
 10
-69.14213562
 20
17.55786438
  0
VERTEX
  8
0
 10
-68.44754832
 20
16.89563751
  0
VERTEX
  8
0
 10
-67.72185722
 20
16.26702771
  0
VERTEX
  8
0
 10
-66.96631897
 20
15.67329163
  0
VERTEX
  8
0
 10
-66.18219018
 20
15.11568589
  0
VERTEX
  8
0
 10
-65.37072752
 20
14.59546713
  0
VERTEX
  8
0
 10
-64.53318760
 20
14.11389200
  0
VERTEX
  8
0
 10
-63.67082708
 20
13.67221712
  0
VERTEX
  8
0
 10
-62.78490258
 20
13.27169914
  0
VERTEX
  8
0
 10
-61.87667074
 20
12.91359469
  0
VERTEX
  8
0
 10
-60.94738821
 20
12.59916041
  0
VERTEX
  8
0
 10
-59.99831161
 20
12.32965294
  0
VERTEX
  8
0
 10
-59.03069759
 20
12.10632892
  0
VERTEX
  8
0
 10
-58.04580278
 20
11.93044497
  0
VERTEX
  8
0
 10
-57.04488382
 20
11.80325775
  0
VERTEX
  8
0
 10
-56.02919735
 20
11.72602388
  0
VERTEX
  8
0
 10
-55.00000000
 20
11.70000000
  0
VERTEX
  8
0
 10
-53.97080265
 20
11.72602388
  0
VERTEX
  8
0
 10
-52.95511618
 20
11.80325775
  0
VERTEX
  8
0
 10
-51.95419722
 20
11.93044497
  0
VERTEX
  8
0
 10
-50.96930241
 20
12.10632892
  0
VERTEX
  8
0
 10
-50.00168839
 20
12.32965294
  0
VERTEX
  8
0
 10
-49.05261179
 20
12.59916041
  0
VERTEX
  8
0
 10
-48.12332926
 20
12.91359469
  0
VERTEX
  8
0
 10
-47.21509742
 20
13.27169914
  0
VERTEX
  8
0
 10
-46.32917292
 20
13.67221712
  0
VERTEX
  8
0
 10
-45.46681240
 20
14.11389200
  0
VERTEX
  8
0
 10
-44.62927248
 20
14.59546713
  0
VERTEX
  8
0
 10
-43.81780982
 20
15.11568589
  0
VERTEX
  8
0
 10
-43.03368103
 20
15.67329163
  0
VERTEX
  8
0
 10
-42.27814278
 20
16.26702771
  0
VERTEX
  8
0
 10
-41.55245168
 20
16.89563751
  0
VERTEX
  8
0
 10
-40.85786438
 20
17.55786438
  0
VERTEX
  8
0
 10
-40.19563751
 20
18.25245168
  0
VERTEX
  8
0
 10
-39.56702771
 20
18.97814278
  0
VERTEX
  8
0
 10
-38.97329163
 20
19.73368103
  0
VERTEX
  8
0
 10
-38.41568589
 20
20.51780982
  0
VERTEX
  8
0
 10
-37.89546713
 20
21.32927248
  0
VERTEX
  8
0
 10
-37.41389200
 20
22.16681240
  0
VERTEX
  8
0
 10
-36.97221712
 20
23.02917292
  0
VERTEX
  8
0
 10
-36.57169914
 20
23.91509742
  0
VERTEX
  8
0
 10
-36.21359469
 20
24.82332926
  0
VERTEX
  8
0
 10
-35.89916041
 20
25.75261179
  0
VERTEX
  8
0
 10
-35.62965294
 20
26.70168839
  0
VERTEX
  8
0
 10
-35.40632892
 20
27.66930241
  0
VERTEX
  8
0
 10
-35.23044497
 20
28.65419722
  0
VERTEX
  8
0
 10
-35.10325775
 20
29.65511618
  0
VERTEX
  8
0
 10
-35.02602388
 20
30.67080265
  0
VERTEX
  8
0
 10
-35.00000000
 20
31.70000000
  0
VERTEX
  8
0
 10
-35.02602388
 20
32.72919735
  0
VERTEX
  8
0
 10
-35.10325775
 20
33.74488382
  0
VERTEX
  8
0
 10
-35.23044497
 20
34.74580278
  0
VERTEX
  8
0
 10
-35.40632892
 20
35.73069759
  0
VERTEX
  8
0
 10
-35.62965294
 20
36.69831161
  0
VERTEX
  8
0
 10
-35.89916041
 20
37.64738821
  0
VERTEX
  8
0
 10
-36.21359469
 20
38.57667074
  0
VERTEX
  8
0
 10
-36.57169914
 20
39.48490258
  0
VERTEX
  8
0
 10
-36.97221712
 20
40.37082708
  0
VERTEX
  8
0
 10
-37.41389200
 20
41.23318760
  0
VERTEX
  8
0
 10
-37.89546713
 20
42.07072752
  0
VERTEX
  8
0
 10
-38.41568589
 20
42.88219018
  0
VERTEX
  8
0
 10
-38.97329163
 20
43.66631897
  0
VERTEX
  8
0
 10
-39.56702771
 20
44.42185722
  0
VERTEX
  8
0
 10
-40.19563751
 20
45.14754832
  0
VERTEX
  8
0
 10
-40.85786438
 20
45.84213562
  0
VERTEX
  8
0
 10
-41.55245168
 20
46.50436249
  0
VERTEX
  8
0
 10
-42.27814278
 20
47.13297229
  0
VERTEX
  8
0
 10
-43.03368103
 20
47.72670837
  0
VERTEX
  8
0
 10
-43.81780982
 20
48.28431411
  0
VERTEX
  8
0
 10
-44.62927248
 20
48.80453287
  0
VERTEX
  8
0
 10
-45.46681240
 20
49.28610800
  0
VERTEX
  8
0
 10
-46.32917292
 20
49.72778288
  0
VERTEX
  8
0
 10
-47.21509742
 20
50.12830086
  0
VERTEX
  8
0
 10
-48.12332926
 20
50.48640531
  0
VERTEX
  8
0
 10
-49.05261179
 20
50.80083959
  0
VERTEX
  8
0
 10
-50.00168839
 20
51.07034706
  0
VERTEX
  8
0
 10
-50.96930241
 20
51.29367108
  0
VERTEX
  8
0
 10
-51.95419722
 20
51.46955503
  0
VERTEX
  8
0
 10
-52.95511618
 20
51.59674225
  0
VERTEX
  8
0
 10
-53.97080265
 20
51.67397612
  0
VERTEX
  8
0
 10
-55.00000000
 20
51.70000000
  0
VERTEX
  8
0
 10
-56.02919735
 20
51.67397612
  0
VERTEX
  8
0
 10
-57.04488382
 20
51.59674225
  0
VERTEX
  8
0
 10
-58.04580278
 20
51.46955503
  0
VERTEX
  8
0
 10
-59.03069759
 20
51.29367108
  0
VERTEX
  8
0
 10
-59.99831161
 20
51.07034706
  0
VERTEX
  8
0
 10
-60.94738821
 20
50.80083959
  0
VERTEX
  8
0
 10
-61.87667074
 20
50.48640531
  0
VERTEX
  8
0
 10
-62.78490258
 20
50.12830086
  0
VERTEX
  8
0
 10
-63.67082708
 20
49.72778288
  0
VERTEX
  8
0
 10
-64.53318760
 20
49.28610800
  0
VERTEX
  8
0
 10
-65.37072752
 20
48.80453287
  0
VERTEX
  8
0
 10
-66.18219018
 20
48.28431411
  0
VERTEX
  8
0
 10
-66.96631897
 20
47.72670837
  0
VERTEX
  8
0
 10
-67.72185722
 20
47.13297229
  0
VERTEX
  8
0
 10
-68.44754832
 20
46.50436249
  0
VERTEX
  8
0
 10
-69.14213562
 20
45.84213562
  0
VERTEX
  8
0
 10
-69.80436249
 20
45.14754832
  0
VERTEX
  8
0
 10
-70.43297229
 20
44.42185722
  0
VERTEX
  8
0
 10
-71.02670837
 20
43.66631897
  0
VERTEX
  8
0
 10
-71.58431411
 20
42.88219018
  0
VERTEX
  8
0
 10
-72.10453287
 20
42.07072752
  0
VERTEX
  8
0
 10
-72.58610800
 20
41.23318760
  0
VERTEX
  8
0
 10
-73.02778288
 20
40.37082708
  0
VERTEX
  8
0
 10
-73.42830086
 20
39.48490258
  0
VERTEX
  8
0
 10
-73.78640531
 20
38.57667074
  0
VERTEX
  8
0
 10
-74.10083959
 20
37.64738821
  0
VERTEX
  8
0
 10
-74.37034706
 20
36.69831161
  0
VERTEX
  8
0
 10
-74.59367108
 20
35.73069759
  0
VERTEX
  8
0
 10
-74.76955503
 20
34.74580278
  0
VERTEX
  8
0
 10
-74.89674225
 20
33.74488382
  0
VERTEX
  8
0
 10
-74.97397612
 20
32.72919735
  0
VERTEX
  8
0
 10
-75.00000000
 20
31.70000000
  0
SEQEND
  0
POLYLINE
  8
Capa por Defecto
 66
   1
 39
0.000000
 70
    1
  0
VERTEX
  8
0
 10
-20.00000000
 20
31.70000000
  0
VERTEX
  8
0
 10
-19.97397612
 20
30.67080265
  0
VERTEX
  8
0
 10
-19.89674225
 20
29.65511618
  0
VERTEX
  8
0
 10
-19.76955503
 20
28.65419722
  0
VERTEX
  8
0
 10
-19.59367108
 20
27.66930241
  0
VERTEX
  8
0
 10
-19.37034706
 20
26.70168839
  0
VERTEX
  8
0
 10
-19.10083959
 20
25.75261179
  0
VERTEX
  8
0
 10
-18.78640531
 20
24.82332926
  0
VERTEX
  8
0
 10
-18.42830086
 20
23.91509742
  0
VERTEX
  8
0
 10
-18.02778288
 20
23.02917292
  0
VERTEX
  8
0
 10
-17.58610800
 20
22.16681240
  0
VERTEX
  8
0
 10
-17.10453287
 20
21.32927248
  0
VERTEX
  8
0
 10
-16.58431411
 20
20.51780982
  0
VERTEX
  8
0
 10
-16.02670837
 20
19.73368103
  0
VERTEX
  8
0
 10
-15.43297229
 20
18.97814278
  0
VERTEX
  8
0
 10
-14.80436249
 20
18.25245168
  0
VERTEX
  8
0
 10
-14.14213562
 20
17.55786438
  0
VERTEX
  8
0
 10
-13.44754832
 20
16.89563751
  0
VERTEX
  8
0
 10
-12.72185722
 20
16.26702771
  0
VERTEX
  8
0
 10
-11.96631897
 20
15.67329163
  0
VERTEX
  8
0
 10
-11.18219018
 20
15.11568589
  0
VERTEX
  8
0
 10
-10.37072752
 20
14.59546713
  0
VERTEX
  8
0
 10
-9.53318760
 20
14.11389200
  0
VERTEX
  8
0
 10
-8.67082708
 20
13.67221712
  0
VERTEX
  8
0
 10
-7.78490258
 20
13.27169914
  0
VERTEX
  8
0
 10
-6.87667074
 20
12.91359469
  0
VERTEX
  8
0
 10
-5.94738821
 20
12.59916041
  0
VERTEX
  8
0
 10
-4.99831161
 20
12.32965294
  0
VERTEX
  8
0
 10
-4.03069759
 20
12.10632892
  0
VERTEX
  8
0
 10
-3.04580278
 20
11.93044497
  0
VERTEX
  8
0
 10
-2.04488382
 20
11.80325775
  0
VERTEX
  8
0
 10
-1.02919735
 20
11.72602388
  0
VERTEX
  8
0
 10
0.00000000
 20
11.70000000
  0
VERTEX
  8
0
 10
1.02919735
 20
11.72602388
  0
VERTEX
  8
0
 10
2.04488382
 20
11.80325775
  0
VERTEX
  8
0
 10
3.04580278
 20
11.93044497
  0
VERTEX
  8
0
 10
4.03069759
 20
12.10632892
  0
VERTEX
  8
0
 10
4.99831161
 20
12.32965294
  0
VERTEX
  8
0
 10
5.94738821
 20
12.59916041
  0
VERTEX
  8
0
 10
6.87667074
 20
12.91359469
  0
VERTEX
  8
0
 10
7.78490258
 20
13.27169914
  0
VERTEX
  8
0
 10
8.67082708
 20
13.67221712
  0
VERTEX
  8
0
 10
9.53318760
 20
14.11389200
  0
VERTEX
  8
0
 10
10.37072752
 20
14.59546713
  0
VERTEX
  8
0
 10
11.18219018
 20
15.11568589
  0
VERTEX
  8
0
 10
11.96631897
 20
15.67329163
  0
VERTEX
  8
0
 10
12.72185722
 20
16.26702771
  0
VERTEX
  8
0
 10
13.44754832
 20
16.89563751
  0
VERTEX
  8
0
 10
14.14213562
 20
17.55786438
  0
VERTEX
  8
0
 10
14.80436249
 20
18.25245168
  0
VERTEX
  8
0
 10
15.43297229
 20
18.97814278
  0
VERTEX
  8
0
 10
16.02670837
 20
19.73368103
  0
VERTEX
  8
0
 10
16.58431411
 20
20.51780982
  0
VERTEX
  8
0
 10
17.10453287
 20
21.32927248
  0
VERTEX
  8
0
 10
17.58610800
 20
22.16681240
  0
VERTEX
  8
0
 10
18.02778288
 20
23.02917292
  0
VERTEX
  8
0
 10
18.42830086
 20
23.91509742
  0
VERTEX
  8
0
 10
18.78640531
 20
24.82332926
  0
VERTEX
  8
0
 10
19.10083959
 20
25.75261179
  0
VERTEX
  8
0
 10
19.37034706
 20
26.70168839
  0
VERTEX
  8
0
 10
19.59367108
 20
27.66930241
  0
VERTEX
  8
0
 10
19.76955503
 20
28.65419722
  0
VERTEX
  8
0
 10
19.89674225
 20
29.65511618
  0
VERTEX
  8
0
 10
19.97397612
 20
30.67080265
  0
VERTEX
  8
0
 10
20.00000000
 20
31.70000000
  0
VERTEX
  8
0
 10
19.97397612
 20
32.72919735
  0
VERTEX
  8
0
 10
19.89674225
 20
33.74488382
  0
VERTEX
  8
0
 10
19.76955503
 20
34.74580278
  0
VERTEX
  8
0
 10
19.59367108
 20
35.73069759
  0
VERTEX
  8
0
 10
19.37034706
 20
36.69831161
  0
VERTEX
  8
0
 10
19.10083959
 20
37.64738821
  0
VERTEX
  8
0
 10
18.78640531
 20
38.57667074
  0
VERTEX
  8
0
 10
18.42830086
 20
39.48490258
  0
VERTEX
  8
0
 10
18.02778288
 20
40.37082708
  0
VERTEX
  8
0
 10
17.58610800
 20
41.23318760
  0
VERTEX
  8
0
 10
17.10453287
 20
42.07072752
  0
VERTEX
  8
0
 10
16.58431411
 20
42.88219018
  0
VERTEX
  8
0
 10
16.02670837
 20
43.66631897
  0
VERTEX
  8
0
 10
15.43297229
 20
44.42185722
  0
VERTEX
  8
0
 10
14.80436249
 20
45.14754832
  0
VERTEX
  8
0
 10
14.14213562
 20
45.84213562
  0
VERTEX
  8
0
 10
13.44754832
 20
46.50436249
  0
VERTEX
  8
0
 10
12.72185722
 20
47.13297229
  0
VERTEX
  8
0
 10
11.96631897
 20
47.72670837
  0
VERTEX
  8
0
 10
11.18219018
 20
48.28431411
  0
VERTEX
  8
0
 10
10.37072752
 20
48.80453287
  0
VERTEX
  8
0
 10
9.53318760
 20
49.28610800
  0
VERTEX
  8
0
 10
8.67082708
 20
49.72778288
  0
VERTEX
  8
0
 10
7.78490258
 20
50.12830086
  0
VERTEX
  8
0
 10
6.87667074
 20
50.48640531
  0
VERTEX
  8
0
 10
5.94738821
 20
50.80083959
  0
VERTEX
  8
0
 10
4.99831161
 20
51.07034706
  0
VERTEX
  8
0
 10
4.03069759
 20
51.29367108
  0
VERTEX
  8
0
 10
3.04580278
 20
51.46955503
  0
VERTEX
  8
0
 10
2.04488382
 20
51.59674225
  0
VERTEX
  8
0
 10
1.02919735
 20
51.67397612
  0
VERTEX
  8
0
 10
0.00000000
 20
51.70000000
  0
VERTEX
  8
0
 10
-1.02919735
 20
51.67397612
  0
VERTEX
  8
0
 10
-2.04488382
 20
51.59674225
  0
VERTEX
  8
0
 10
-3.04580278
 20
51.46955503
  0
VERTEX
  8
0
 10
-4.03069759
 20
51.29367108
  0
VERTEX
  8
0
 10
-4.99831161
 20
51.07034706
  0
VERTEX
  8
0
 10
-5.94738821
 20
50.80083959
  0
VERTEX
  8
0
 10
-6.87667074
 20
50.48640531
  0
VERTEX
  8
0
 10
-7.78490258
 20
50.12830086
  0
VERTEX
  8
0
 10
-8.67082708
 20
49.72778288
  0
VERTEX
  8
0
 10
-9.53318760
 20
49.28610800
  0
VERTEX
  8
0
 10
-10.37072752
 20
48.80453287
  0
VERTEX
  8
0
 10
-11.18219018
 20
48.28431411
  0
VERTEX
  8
0
 10
-11.96631897
 20
47.72670837
  0
VERTEX
  8
0
 10
-12.72185722
 20
47.13297229
  0
VERTEX
  8
0
 10
-13.44754832
 20
46.50436249
  0
VERTEX
  8
0
 10
-14.14213562
 20
45.84213562
  0
VERTEX
  8
0
 10
-14.80436249
 20
45.14754832
  0
VERTEX
  8
0
 10
-15.43297229
 20
44.42185722
  0
VERTEX
  8
0
 10
-16.02670837
 20
43.66631897
  0
VERTEX
  8
0
 10
-16.58431411
 20
42.88219018
  0
VERTEX
  8
0
 10
-17.10453287
 20
42.07072752
  0
VERTEX
  8
0
 10
-17.58610800
 20
41.23318760
  0
VERTEX
  8
0
 10
-18.02778288
 20
40.37082708
  0
VERTEX
  8
0
 10
-18.42830086
 20
39.48490258
  0
VERTEX
  8
0
 10
-18.78640531
 20
38.57667074
  0
VERTEX
  8
0
 10
-19.10083959
 20
37.64738821
  0
VERTEX
  8
0
 10
-19.37034706
 20
36.69831161
  0
VERTEX
  8
0
 10
-19.59367108
 20
35.73069759
  0
VERTEX
  8
0
 10
-19.76955503
 20
34.74580278
  0
VERTEX
  8
0
 10
-19.89674225
 20
33.74488382
  0
VERTEX
  8
0
 10
-19.97397612
 20
32.72919735
  0
VERTEX
  8
0
 10
-20.00000000
 20
31.70000000
  0
SEQEND
  0
POLYLINE
  8
Capa por Defecto
 66
   1
 39
0.000000
 70
    1
  0
VERTEX
  8
0
 10
35.00000000
 20
31.70000000
  0
VERTEX
  8
0
 10
35.02602388
 20
30.67080265
  0
VERTEX
  8
0
 10
35.10325775
 20
29.65511618
  0
VERTEX
  8
0
 10
35.23044497
 20
28.65419722
  0
VERTEX
  8
0
 10
35.40632892
 20
27.66930241
  0
VERTEX
  8
0
 10
35.62965294
 20
26.70168839
  0
VERTEX
  8
0
 10
35.89916041
 20
25.75261179
  0
VERTEX
  8
0
 10
36.21359469
 20
24.82332926
  0
VERTEX
  8
0
 10
36.57169914
 20
23.91509742
  0
VERTEX
  8
0
 10
36.97221712
 20
23.02917292
  0
VERTEX
  8
0
 10
37.41389200
 20
22.16681240
  0
VERTEX
  8
0
 10
37.89546713
 20
21.32927248
  0
VERTEX
  8
0
 10
38.41568589
 20
20.51780982
  0
VERTEX
  8
0
 10
38.97329163
 20
19.73368103
  0
VERTEX
  8
0
 10
39.56702771
 20
18.97814278
  0
VERTEX
  8
0
 10
40.19563751
 20
18.25245168
  0
VERTEX
  8
0
 10
40.85786438
 20
17.55786438
  0
VERTEX
  8
0
 10
41.55245168
 20
16.89563751
  0
VERTEX
  8
0
 10
42.27814278
 20
16.26702771
  0
VERTEX
  8
0
 10
43.03368103
 20
15.67329163
  0
VERTEX
  8
0
 10
43.81780982
 20
15.11568589
  0
VERTEX
  8
0
 10
44.62927248
 20
14.59546713
  0
VERTEX
  8
0
 10
45.46681240
 20
14.11389200
  0
VERTEX
  8
0
 10
46.32917292
 20
13.67221712
  0
VERTEX
  8
0
 10
47.21509742
 20
13.27169914
  0
VERTEX
  8
0
 10
48.12332926
 20
12.91359469
  0
VERTEX
  8
0
 10
49.05261179
 20
12.59916041
  0
VERTEX
  8
0
 10
50.00168839
 20
12.32965294
  0
VERTEX
  8
0
 10
50.96930241
 20
12.10632892
  0
VERTEX
  8
0
 10
51.95419722
 20
11.93044497
  0
VERTEX
  8
0
 10
52.95511618
 20
11.80325775
  0
VERTEX
  8
0
 10
53.97080265
 20
11.72602388
  0
VERTEX
  8
0
 10
55.00000000
 20
11.70000000
  0
VERTEX
  8
0
 10
56.02919735
 20
11.72602388
  0
VERTEX
  8
0
 10
57.04488382
 20
11.80325775
  0
VERTEX
  8
0
 10
58.04580278
 20
11.93044497
  0
VERTEX
  8
0
 10
59.03069759
 20
12.10632892
  0
VERTEX
  8
0
 10
59.99831161
 20
12.32965294
  0
VERTEX
  8
0
 10
60.94738821
 20
12.59916041
  0
VERTEX
  8
0
 10
61.87667074
 20
12.91359469
  0
VERTEX
  8
0
 10
62.78490258
 20
13.27169914
  0
VERTEX
  8
0
 10
63.67082708
 20
13.67221712
  0
VERTEX
  8
0
 10
64.53318760
 20
14.11389200
  0
VERTEX
  8
0
 10
65.37072752
 20
14.59546713
  0
VERTEX
  8
0
 10
66.18219018
 20
15.11568589
  0
VERTEX
  8
0
 10
66.96631897
 20
15.67329163
  0
VERTEX
  8
0
 10
67.72185722
 20
16.26702771
  0
VERTEX
  8
0
 10
68.44754832
 20
16.89563751
  0
VERTEX
  8
0
 10
69.14213562
 20
17.55786438
  0
VERTEX
  8
0
 10
69.80436249
 20
18.25245168
  0
VERTEX
  8
0
 10
70.43297229
 20
18.97814278
  0
VERTEX
  8
0
 10
71.02670837
 20
19.73368103
  0
VERTEX
  8
0
 10
71.58431411
 20
20.51780982
  0
VERTEX
  8
0
 10
72.10453287
 20
21.32927248
  0
VERTEX
  8
0
 10
72.58610800
 20
22.16681240
  0
VERTEX
  8
0
 10
73.02778288
 20
23.02917292
  0
VERTEX
  8
0
 10
73.42830086
 20
23.91509742
  0
VERTEX
  8
0
 10
73.78640531
 20
24.82332926
  0
VERTEX
  8
0
 10
74.10083959
 20
25.75261179
  0
VERTEX
  8
0
 10
74.37034706
 20
26.70168839
  0
VERTEX
  8
0
 10
74.59367108
 20
27.66930241
  0
VERTEX
  8
0
 10
74.76955503
 20
28.65419722
  0
VERTEX
  8
0
 10
74.89674225
 20
29.65511618
  0
VERTEX
  8
0
 10
74.97397612
 20
30.67080265
  0
VERTEX
  8
0
 10
75.00000000
 20
31.70000000
  0
VERTEX
  8
0
 10
74.97397612
 20
32.72919735
  0
VERTEX
  8
0
 10
74.89674225
 20
33.74488382
  0
VERTEX
  8
0
 10
74.76955503
 20
34.74580278
  0
VERTEX
  8
0
 10
74.59367108
 20
35.73069759
  0
VERTEX
  8
0
 10
74.37034706
 20
36.69831161
  0
VERTEX
  8
0
 10
74.10083959
 20
37.64738821
  0
VERTEX
  8
0
 10
73.78640531
 20
38.57667074
  0
VERTEX
  8
0
 10
73.42830086
 20
39.48490258
  0
VERTEX
  8
0
 10
73.02778288
 20
40.37082708
  0
VERTEX
  8
0
 10
72.58610800
 20
41.23318760
  0
VERTEX
  8
0
 10
72.10453287
 20
42.07072752
  0
VERTEX
  8
0
 10
71.58431411
 20
42.88219018
  0
VERTEX
  8
0
 10
71.02670837
 20
43.66631897
  0
VERTEX
  8
0
 10
70.43297229
 20
44.42185722
  0
VERTEX
  8
0
 10
69.80436249
 20
45.14754832
  0
VERTEX
  8
0
 10
69.14213562
 20
45.84213562
  0
VERTEX
  8
0
 10
68.44754832
 20
46.50436249
  0
VERTEX
  8
0
 10
67.72185722
 20
47.13297229
  0
VERTEX
  8
0
 10
66.96631897
 20
47.72670837
  0
VERTEX
  8
0
 10
66.18219018
 20
48.28431411
  0
VERTEX
  8
0
 10
65.37072752
 20
48.80453287
  0
VERTEX
  8
0
 10
64.53318760
 20
49.28610800
  0
VERTEX
  8
0
 10
63.67082708
 20
49.72778288
  0
VERTEX
  8
0
 10
62.78490258
 20
50.12830086
  0
VERTEX
  8
0
 10
61.87667074
 20
50.48640531
  0
VERTEX
  8
0
 10
60.94738821
 20
50.80083959
  0
VERTEX
  8
0
 10
59.99831161
 20
51.07034706
  0
VERTEX
  8
0
 10
59.03069759
 20
51.29367108
  0
VERTEX
  8
0
 10
58.04580278
 20
51.46955503
  0
VERTEX
  8
0
 10
57.04488382
 20
51.59674225
  0
VERTEX
  8
0
 10
56.02919735
 20
51.67397612
  0
VERTEX
  8
0
 10
55.00000000
 20
51.70000000
  0
VERTEX
  8
0
 10
53.97080265
 20
51.67397612
  0
VERTEX
  8
0
 10
52.95511618
 20
51.59674225
  0
VERTEX
  8
0
 10
51.95419722
 20
51.46955503
  0
VERTEX
  8
0
 10
50.96930241
 20
51.29367108
  0
VERTEX
  8
0
 10
50.00168839
 20
51.07034706
  0
VERTEX
  8
0
 10
49.05261179
 20
50.80083959
  0
VERTEX
  8
0
 10
48.12332926
 20
50.48640531
  0
VERTEX
  8
0
 10
47.21509742
 20
50.12830086
  0
VERTEX
  8
0
 10
46.32917292
 20
49.72778288
  0
VERTEX
  8
0
 10
45.46681240
 20
49.28610800
  0
VERTEX
  8
0
 10
44.62927248
 20
48.80453287
  0
VERTEX
  8
0
 10
43.81780982
 20
48.28431411
  0
VERTEX
  8
0
 10
43.03368103
 20
47.72670837
  0
VERTEX
  8
0
 10
42.27814278
 20
47.13297229
  0
VERTEX
  8
0
 10
41.55245168
 20
46.50436249
  0
VERTEX
  8
0
 10
40.85786438
 20
45.84213562
  0
VERTEX
  8
0
 10
40.19563751
 20
45.14754832
  0
VERTEX
  8
0
 10
39.56702771
 20
44.42185722
  0
VERTEX
  8
0
 10
38.97329163
 20
43.66631897
  0
VERTEX
  8
0
 10
38.41568589
 20
42.88219018
  0
VERTEX
  8
0
 10
37.89546713
 20
42.07072752
  0
VERTEX
  8
0
 10
37.41389200
 20
41.23318760
  0
VERTEX
  8
0
 10
36.97221712
 20
40.37082708
  0
VERTEX
  8
0
 10
36.57169914
 20
39.48490258
  0
VERTEX
  8
0
 10
36.21359469
 20
38.57667074
  0
VERTEX
  8
0
 10
35.89916041
 20
37.64738821
  0
VERTEX
  8
0
 10
35.62965294
 20
36.69831161
  0
VERTEX
  8
0
 10
35.40632892
 20
35.73069759
  0
VERTEX
  8
0
 10
35.23044497
 20
34.74580278
  0
VERTEX
  8
0
 10
35.10325775
 20
33.74488382
  0
VERTEX
  8
0
 10
35.02602388
 20
32.72919735
  0
VERTEX
  8
0
 10
35.00000000
 20
31.70000000
  0
SEQEND
  0
POLYLINE
  8
Capa por Defecto
 66
   1
 39
0.000000
 70
    1
  0
VERTEX
  8
0
 10
90.00000000
 20
31.70000000
  0
VERTEX
  8
0
 10
90.02602388
 20
30.67080265
  0
VERTEX
  8
0
 10
90.10325775
 20
29.65511618
  0
VERTEX
  8
0
 10
90.23044497
 20
28.65419722
  0
VERTEX
  8
0
 10
90.40632892
 20
27.66930241
  0
VERTEX
  8
0
 10
90.62965294
 20
26.70168839
  0
VERTEX
  8
0
 10
90.89916041
 20
25.75261179
  0
VERTEX
  8
0
 10
91.21359469
 20
24.82332926
  0
VERTEX
  8
0
 10
91.57169914
 20
23.91509742
  0
VERTEX
  8
0
 10
91.97221712
 20
23.02917292
  0
VERTEX
  8
0
 10
92.41389200
 20
22.16681240
  0
VERTEX
  8
0
 10
92.89546713
 20
21.32927248
  0
VERTEX
  8
0
 10
93.41568589
 20
20.51780982
  0
VERTEX
  8
0
 10
93.97329163
 20
19.73368103
  0
VERTEX
  8
0
 10
94.56702771
 20
18.97814278
  0
VERTEX
  8
0
 10
95.19563751
 20
18.25245168
  0
VERTEX
  8
0
 10
95.85786438
 20
17.55786438
  0
VERTEX
  8
0
 10
96.55245168
 20
16.89563751
  0
VERTEX
  8
0
 10
97.27814278
 20
16.26702771
  0
VERTEX
  8
0
 10
98.03368103
 20
15.67329163
  0
VERTEX
  8
0
 10
98.81780982
 20
15.11568589
  0
VERTEX
  8
0
 10
99.62927248
 20
14.59546713
  0
VERTEX
  8
0
 10
100.46681240
 20
14.11389200
  0
VERTEX
  8
0
 10
101.32917292
 20
13.67221712
  0
VERTEX
  8
0
 10
102.21509742
 20
13.27169914
  0
VERTEX
  8
0
 10
103.12332926
 20
12.91359469
  0
VERTEX
  8
0
 10
104.05261179
 20
12.59916041
  0
VERTEX
  8
0
 10
105.00168839
 20
12.32965294
  0
VERTEX
  8
0
 10
105.96930241
 20
12.10632892
  0
VERTEX
  8
0
 10
106.95419722
 20
11.93044497
  0
VERTEX
  8
0
 10
107.95511618
 20
11.80325775
  0
VERTEX
  8
0
 10
108.97080265
 20
11.72602388
  0
VERTEX
  8
0
 10
110.00000000
 20
11.70000000
  0
VERTEX
  8
0
 10
111.02919735
 20
11.72602388
  0
VERTEX
  8
0
 10
112.04488382
 20
11.80325775
  0
VERTEX
  8
0
 10
113.04580278
 20
11.93044497
  0
VERTEX
  8
0
 10
114.03069759
 20
12.10632892
  0
VERTEX
  8
0
 10
114.99831161
 20
12.32965294
  0
VERTEX
  8
0
 10
115.94738821
 20
12.59916041
  0
VERTEX
  8
0
 10
116.87667074
 20
12.91359469
  0
VERTEX
  8
0
 10
117.78490258
 20
13.27169914
  0
VERTEX
  8
0
 10
118.67082708
 20
13.67221712
  0
VERTEX
  8
0
 10
119.53318760
 20
14.11389200
  0
VERTEX
  8
0
 10
120.37072752
 20
14.59546713
  0
VERTEX
  8
0
 10
121.18219018
 20
15.11568589
  0
VERTEX
  8
0
 10
121.96631897
 20
15.67329163
  0
VERTEX
  8
0
 10
122.72185722
 20
16.26702771
  0
VERTEX
  8
0
 10
123.44754832
 20
16.89563751
  0
VERTEX
  8
0
 10
124.14213562
 20
17.55786438
  0
VERTEX
  8
0
 10
124.80436249
 20
18.25245168
  0
VERTEX
  8
0
 10
125.43297229
 20
18.97814278
  0
VERTEX
  8
0
 10
126.02670837
 20
19.73368103
  0
VERTEX
  8
0
 10
126.58431411
 20
20.51780982
  0
VERTEX
  8
0
 10
127.10453287
 20
21.32927248
  0
VERTEX
  8
0
 10
127.58610800
 20
22.16681240
  0
VERTEX
  8
0
 10
128.02778288
 20
23.02917292
  0
VERTEX
  8
0
 10
128.42830086
 20
23.91509742
  0
VERTEX
  8
0
 10
128.78640531
 20
24.82332926
  0
VERTEX
  8
0
 10
129.10083959
 20
25.75261179
  0
VERTEX
  8
0
 10
129.37034706
 20
26.70168839
  0
VERTEX
  8
0
 10
129.59367108
 20
27.66930241
  0
VERTEX
  8
0
 10
129.76955503
 20
28.65419722
  0
VERTEX
  8
0
 10
129.89674225
 20
29.65511618
  0
VERTEX
  8
0
 10
129.97397612
 20
30.67080265
  0
VERTEX
  8
0
 10
130.00000000
 20
31.70000000
  0
VERTEX
  8
0
 10
129.97397612
 20
32.72919735
  0
VERTEX
  8
0
 10
129.89674225
 20
33.74488382
  0
VERTEX
  8
0
 10
129.76955503
 20
34.74580278
  0
VERTEX
  8
0
 10
129.59367108
 20
35.73069759
  0
VERTEX
  8
0
 10
129.37034706
 20
36.69831161
  0
VERTEX
  8
0
 10
129.10083959
 20
37.64738821
  0
VERTEX
  8
0
 10
128.78640531
 20
38.57667074
  0
VERTEX
  8
0
 10
128.42830086
 20
39.48490258
  0
VERTEX
  8
0
 10
128.02778288
 20
40.37082708
  0
VERTEX
  8
0
 10
127.58610800
 20
41.23318760
  0
VERTEX
  8
0
 10
127.10453287
 20
42.07072752
  0
VERTEX
  8
0
 10
126.58431411
 20
42.88219018
  0
VERTEX
  8
0
 10
126.02670837
 20
43.66631897
  0
VERTEX
  8
0
 10
125.43297229
 20
44.42185722
  0
VERTEX
  8
0
 10
124.80436249
 20
45.14754832
  0
VERTEX
  8
0
 10
124.14213562
 20
45.84213562
  0
VERTEX
  8
0
 10
123.44754832
 20
46.50436249
  0
VERTEX
  8
0
 10
122.72185722
 20
47.13297229
  0
VERTEX
  8
0
 10
121.96631897
 20
47.72670837
  0
VERTEX
  8
0
 10
121.18219018
 20
48.28431411
  0
VERTEX
  8
0
 10
120.37072752
 20
48.80453287
  0
VERTEX
  8
0
 10
119.53318760
 20
49.28610800
  0
VERTEX
  8
0
 10
118.67082708
 20
49.72778288
  0
VERTEX
  8
0
 10
117.78490258
 20
50.12830086
  0
VERTEX
  8
0
 10
116.87667074
 20
50.48640531
  0
VERTEX
  8
0
 10
115.94738821
 20
50.80083959
  0
VERTEX
  8
0
 10
114.99831161
 20
51.07034706
  0
VERTEX
  8
0
 10
114.03069759
 20
51.29367108
  0
VERTEX
  8
0
 10
113.04580278
 20
51.46955503
  0
VERTEX
  8
0
 10
112.04488382
 20
51.59674225
  0
VERTEX
  8
0
 10
111.02919735
 20
51.67397612
  0
VERTEX
  8
0
 10
110.00000000
 20
51.70000000
  0
VERTEX
  8
0
 10
108.97080265
 20
51.67397612
  0
VERTEX
  8
0
 10
107.95511618
 20
51.59674225
  0
VERTEX
  8
0
 10
106.95419722
 20
51.46955503
  0
VERTEX
  8
0
 10
105.96930241
 20
51.29367108
  0
VERTEX
  8
0
 10
105.00168839
 20
51.07034706
  0
VERTEX
  8
0
 10
104.05261179
 20
50.80083959
  0
VERTEX
  8
0
 10
103.12332926
 20
50.48640531
  0
VERTEX
  8
0
 10
102.21509742
 20
50.12830086
  0
VERTEX
  8
0
 10
101.32917292
 20
49.72778288
  0
VERTEX
  8
0
 10
100.46681240
 20
49.28610800
  0
VERTEX
  8
0
 10
99.62927248
 20
48.80453287
  0
VERTEX
  8
0
 10
98.81780982
 20
48.28431411
  0
VERTEX
  8
0
 10
98.03368103
 20
47.72670837
  0
VERTEX
  8
0
 10
97.27814278
 20
47.13297229
  0
VERTEX
  8
0
 10
96.55245168
 20
46.50436249
  0
VERTEX
  8
0
 10
95.85786438
 20
45.84213562
  0
VERTEX
  8
0
 10
95.19563751
 20
45.14754832
  0
VERTEX
  8
0
 10
94.56702771
 20
44.42185722
  0
VERTEX
  8
0
 10
93.97329163
 20
43.66631897
  0
VERTEX
  8
0
 10
93.41568589
 20
42.88219018
  0
VERTEX
  8
0
 10
92.89546713
 20
42.07072752
  0
VERTEX
  8
0
 10
92.41389200
 20
41.23318760
  0
VERTEX
  8
0
 10
91.97221712
 20
40.37082708
  0
VERTEX
  8
0
 10
91.57169914
 20
39.48490258
  0
VERTEX
  8
0
 10
91.21359469
 20
38.57667074
  0
VERTEX
  8
0
 10
90.89916041
 20
37.64738821
  0
VERTEX
  8
0
 10
90.62965294
 20
36.69831161
  0
VERTEX
  8
0
 10
90.40632892
 20
35.73069759
  0
VERTEX
  8
0
 10
90.23044497
 20
34.74580278
  0
VERTEX
  8
0
 10
90.10325775
 20
33.74488382
  0
VERTEX
  8
0
 10
90.02602388
 20
32.72919735
  0
VERTEX
  8
0
 10
90.00000000
 20
31.70000000
  0
SEQEND
  0
POLYLINE
  8
Capa por Defecto
 66
   1
 39
0.000000
 70
    1
  0
VERTEX
  8
0
 10
145.00000000
 20
31.70000000
  0
VERTEX
  8
0
 10
145.02602388
 20
30.67080265
  0
VERTEX
  8
0
 10
145.10325775
 20
29.65511618
  0
VERTEX
  8
0
 10
145.23044497
 20
28.65419722
  0
VERTEX
  8
0
 10
145.40632892
 20
27.66930241
  0
VERTEX
  8
0
 10
145.62965294
 20
26.70168839
  0
VERTEX
  8
0
 10
145.89916041
 20
25.75261179
  0
VERTEX
  8
0
 10
146.21359469
 20
24.82332926
  0
VERTEX
  8
0
 10
146.57169914
 20
23.91509742
  0
VERTEX
  8
0
 10
146.97221712
 20
23.02917292
  0
VERTEX
  8
0
 10
147.41389200
 20
22.16681240
  0
VERTEX
  8
0
 10
147.89546713
 20
21.32927248
  0
VERTEX
  8
0
 10
148.41568589
 20
20.51780982
  0
VERTEX
  8
0
 10
148.97329163
 20
19.73368103
  0
VERTEX
  8
0
 10
149.56702771
 20
18.97814278
  0
VERTEX
  8
0
 10
150.19563751
 20
18.25245168
  0
VERTEX
  8
0
 10
150.85786438
 20
17.55786438
  0
VERTEX
  8
0
 10
151.55245168
 20
16.89563751
  0
VERTEX
  8
0
 10
152.27814278
 20
16.26702771
  0
VERTEX
  8
0
 10
153.03368103
 20
15.67329163
  0
VERTEX
  8
0
 10
153.81780982
 20
15.11568589
  0
VERTEX
  8
0
 10
154.62927248
 20
14.59546713
  0
VERTEX
  8
0
 10
155.46681240
 20
14.11389200
  0
VERTEX
  8
0
 10
156.32917292
 20
13.67221712
  0
VERTEX
  8
0
 10
157.21509742
 20
13.27169914
  0
VERTEX
  8
0
 10
158.12332926
 20
12.91359469
  0
VERTEX
  8
0
 10
159.05261179
 20
12.59916041
  0
VERTEX
  8
0
 10
160.00168839
 20
12.32965294
  0
VERTEX
  8
0
 10
160.96930241
 20
12.10632892
  0
VERTEX
  8
0
 10
161.95419722
 20
11.93044497
  0
VERTEX
  8
0
 10
162.95511618
 20
11.80325775
  0
VERTEX
  8
0
 10
163.97080265
 20
11.72602388
  0
VERTEX
  8
0
 10
165.00000000
 20
11.70000000
  0
VERTEX
  8
0
 10
166.02919735
 20
11.72602388
  0
VERTEX
  8
0
 10
167.04488382
 20
11.80325775
  0
VERTEX
  8
0
 10
168.04580278
 20
11.93044497
  0
VERTEX
  8
0
 10
169.03069759
 20
12.10632892
  0
VERTEX
  8
0
 10
169.99831161
 20
12.32965294
  0
VERTEX
  8
0
 10
170.94738821
 20
12.59916041
  0
VERTEX
  8
0
 10
171.87667074
 20
12.91359469
  0
VERTEX
  8
0
 10
172.78490258
 20
13.27169914
  0
VERTEX
  8
0
 10
173.67082708
 20
13.67221712
  0
VERTEX
  8
0
 10
174.53318760
 20
14.11389200
  0
VERTEX
  8
0
 10
175.37072752
 20
14.59546713
  0
VERTEX
  8
0
 10
176.18219018
 20
15.11568589
  0
VERTEX
  8
0
 10
176.96631897
 20
15.67329163
  0
VERTEX
  8
0
 10
177.72185722
 20
16.26702771
  0
VERTEX
  8
0
 10
178.44754832
 20
16.89563751
  0
VERTEX
  8
0
 10
179.14213562
 20
17.55786438
  0
VERTEX
  8
0
 10
179.80436249
 20
18.25245168
  0
VERTEX
  8
0
 10
180.43297229
 20
18.97814278
  0
VERTEX
  8
0
 10
181.02670837
 20
19.73368103
  0
VERTEX
  8
0
 10
181.58431411
 20
20.51780982
  0
VERTEX
  8
0
 10
182.10453287
 20
21.32927248
  0
VERTEX
  8
0
 10
182.58610800
 20
22.16681240
  0
VERTEX
  8
0
 10
183.02778288
 20
23.02917292
  0
VERTEX
  8
0
 10
183.42830086
 20
23.91509742
  0
VERTEX
  8
0
 10
183.78640531
 20
24.82332926
  0
VERTEX
  8
0
 10
184.10083959
 20
25.75261179
  0
VERTEX
  8
0
 10
184.37034706
 20
26.70168839
  0
VERTEX
  8
0
 10
184.59367108
 20
27.66930241
  0
VERTEX
  8
0
 10
184.76955503
 20
28.65419722
  0
VERTEX
  8
0
 10
184.89674225
 20
29.65511618
  0
VERTEX
  8
0
 10
184.97397612
 20
30.67080265
  0
VERTEX
  8
0
 10
185.00000000
 20
31.70000000
  0
VERTEX
  8
0
 10
184.97397612
 20
32.72919735
  0
VERTEX
  8
0
 10
184.89674225
 20
33.74488382
  0
VERTEX
  8
0
 10
184.76955503
 20
34.74580278
  0
VERTEX
  8
0
 10
184.59367108
 20
35.73069759
  0
VERTEX
  8
0
 10
184.37034706
 20
36.69831161
  0
VERTEX
  8
0
 10
184.10083959
 20
37.64738821
  0
VERTEX
  8
0
 10
183.78640531
 20
38.57667074
  0
VERTEX
  8
0
 10
183.42830086
 20
39.48490258
  0
VERTEX
  8
0
 10
183.02778288
 20
40.37082708
  0
VERTEX
  8
0
 10
182.58610800
 20
41.23318760
  0
VERTEX
  8
0
 10
182.10453287
 20
42.07072752
  0
VERTEX
  8
0
 10
181.58431411
 20
42.88219018
  0
VERTEX
  8
0
 10
181.02670837
 20
43.66631897
  0
VERTEX
  8
0
 10
180.43297229
 20
44.42185722
  0
VERTEX
  8
0
 10
179.80436249
 20
45.14754832
  0
VERTEX
  8
0
 10
179.14213562
 20
45.84213562
  0
VERTEX
  8
0
 10
178.44754832
 20
46.50436249
  0
VERTEX
  8
0
 10
177.72185722
 20
47.13297229
  0
VERTEX
  8
0
 10
176.96631897
 20
47.72670837
  0
VERTEX
  8
0
 10
176.18219018
 20
48.28431411
  0
VERTEX
  8
0
 10
175.37072752
 20
48.80453287
  0
VERTEX
  8
0
 10
174.53318760
 20
49.28610800
  0
VERTEX
  8
0
 10
173.67082708
 20
49.72778288
  0
VERTEX
  8
0
 10
172.78490258
 20
50.12830086
  0
VERTEX
  8
0
 10
171.87667074
 20
50.48640531
  0
VERTEX
  8
0
 10
170.94738821
 20
50.80083959
  0
VERTEX
  8
0
 10
169.99831161
 20
51.07034706
  0
VERTEX
  8
0
 10
169.03069759
 20
51.29367108
  0
VERTEX
  8
0
 10
168.04580278
 20
51.46955503
  0
VERTEX
  8
0
 10
167.04488382
 20
51.59674225
  0
VERTEX
  8
0
 10
166.02919735
 20
51.67397612
  0
VERTEX
  8
0
 10
165.00000000
 20
51.70000000
  0
VERTEX
  8
0
 10
163.97080265
 20
51.67397612
  0
VERTEX
  8
0
 10
162.95511618
 20
51.59674225
  0
VERTEX
  8
0
 10
161.95419722
 20
51.46955503
  0
VERTEX
  8
0
 10
160.96930241
 20
51.29367108
  0
VERTEX
  8
0
 10
160.00168839
 20
51.07034706
  0
VERTEX
  8
0
 10
159.05261179
 20
50.80083959
  0
VERTEX
  8
0
 10
158.12332926
 20
50.48640531
  0
VERTEX
  8
0
 10
157.21509742
 20
50.12830086
  0
VERTEX
  8
0
 10
156.32917292
 20
49.72778288
  0
VERTEX
  8
0
 10
155.46681240
 20
49.28610800
  0
VERTEX
  8
0
 10
154.62927248
 20
48.80453287
  0
VERTEX
  8
0
 10
153.81780982
 20
48.28431411
  0
VERTEX
  8
0
 10
153.03368103
 20
47.72670837
  0
VERTEX
  8
0
 10
152.27814278
 20
47.13297229
  0
VERTEX
  8
0
 10
151.55245168
 20
46.50436249
  0
VERTEX
  8
0
 10
150.85786438
 20
45.84213562
  0
VERTEX
  8
0
 10
150.19563751
 20
45.14754832
  0
VERTEX
  8
0
 10
149.56702771
 20
44.42185722
  0
VERTEX
  8
0
 10
148.97329163
 20
43.66631897
  0
VERTEX
  8
0
 10
148.41568589
 20
42.88219018
  0
VERTEX
  8
0
 10
147.89546713
 20
42.07072752
  0
VERTEX
  8
0
 10
147.41389200
 20
41.23318760
  0
VERTEX
  8
0
 10
146.97221712
 20
40.37082708
  0
VERTEX
  8
0
 10
146.57169914
 20
39.48490258
  0
VERTEX
  8
0
 10
146.21359469
 20
38.57667074
  0
VERTEX
  8
0
 10
145.89916041
 20
37.64738821
  0
VERTEX
  8
0
 10
145.62965294
 20
36.69831161
  0
VERTEX
  8
0
 10
145.40632892
 20
35.73069759
  0
VERTEX
  8
0
 10
145.23044497
 20
34.74580278
  0
VERTEX
  8
0
 10
145.10325775
 20
33.74488382
  0
VERTEX
  8
0
 10
145.02602388
 20
32.72919735
  0
VERTEX
  8
0
 10
145.00000000
 20
31.70000000
  0
SEQEND
  0
POLYLINE
  8
Capa por Defecto
 66
   1
 39
0.000000
 70
    1
  0
VERTEX
  8
0
 10
-145.00000000
 20
-31.70000000
  0
VERTEX
  8
0
 10
-145.02602388
 20
-30.67080265
  0
VERTEX
  8
0
 10
-145.10325775
 20
-29.65511618
  0
VERTEX
  8
0
 10
-145.23044497
 20
-28.65419722
  0
VERTEX
  8
0
 10
-145.40632892
 20
-27.66930241
  0
VERTEX
  8
0
 10
-145.62965294
 20
-26.70168839
  0
VERTEX
  8
0
 10
-145.89916041
 20
-25.75261179
  0
VERTEX
  8
0
 10
-146.21359469
 20
-24.82332926
  0
VERTEX
  8
0
 10
-146.57169914
 20
-23.91509742
  0
VERTEX
  8
0
 10
-146.97221712
 20
-23.02917292
  0
VERTEX
  8
0
 10
-147.41389200
 20
-22.16681240
  0
VERTEX
  8
0
 10
-147.89546713
 20
-21.32927248
  0
VERTEX
  8
0
 10
-148.41568589
 20
-20.51780982
  0
VERTEX
  8
0
 10
-148.97329163
 20
-19.73368103
  0
VERTEX
  8
0
 10
-149.56702771
 20
-18.97814278
  0
VERTEX
  8
0
 10
-150.19563751
 20
-18.25245168
  0
VERTEX
  8
0
 10
-150.85786438
 20
-17.55786438
  0
VERTEX
  8
0
 10
-151.55245168
 20
-16.89563751
  0
VERTEX
  8
0
 10
-152.27814278
 20
-16.26702771
  0
VERTEX
  8
0
 10
-153.03368103
 20
-15.67329163
  0
VERTEX
  8
0
 10
-153.81780982
 20
-15.11568589
  0
VERTEX
  8
0
 10
-154.62927248
 20
-14.59546713
  0
VERTEX
  8
0
 10
-155.46681240
 20
-14.11389200
  0
VERTEX
  8
0
 10
-156.32917292
 20
-13.67221712
  0
VERTEX
  8
0
 10
-157.21509742
 20
-13.27169914
  0
VERTEX
  8
0
 10
-158.12332926
 20
-12.91359469
  0
VERTEX
  8
0
 10
-159.05261179
 20
-12.59916041
  0
VERTEX
  8
0
 10
-160.00168839
 20
-12.32965294
  0
VERTEX
  8
0
 10
-160.96930241
 20
-12.10632892
  0
VERTEX
  8
0
 10
-161.95419722
 20
-11.93044497
  0
VERTEX
  8
0
 10
-162.95511618
 20
-11.80325775
  0
VERTEX
  8
0
 10
-163.97080265
 20
-11.72602388
  0
VERTEX
  8
0
 10
-165.00000000
 20
-11.70000000
  0
VERTEX
  8
0
 10
-166.02919735
 20
-11.72602388
  0
VERTEX
  8
0
 10
-167.04488382
 20
-11.80325775
  0
VERTEX
  8
0
 10
-168.04580278
 20
-11.93044497
  0
VERTEX
  8
0
 10
-169.03069759
 20
-12.10632892
  0
VERTEX
  8
0
 10
-169.99831161
 20
-12.32965294
  0
VERTEX
  8
0
 10
-170.94738821
 20
-12.59916041
  0
VERTEX
  8
0
 10
-171.87667074
 20
-12.91359469
  0
VERTEX
  8
0
 10
-172.78490258
 20
-13.27169914
  0
VERTEX
  8
0
 10
-173.67082708
 20
-13.67221712
  0
VERTEX
  8
0
 10
-174.53318760
 20
-14.11389200
  0
VERTEX
  8
0
 10
-175.37072752
 20
-14.59546713
  0
VERTEX
  8
0
 10
-176.18219018
 20
-15.11568589
  0
VERTEX
  8
0
 10
-176.96631897
 20
-15.67329163
  0
VERTEX
  8
0
 10
-177.72185722
 20
-16.26702771
  0
VERTEX
  8
0
 10
-178.44754832
 20
-16.89563751
  0
VERTEX
  8
0
 10
-179.14213562
 20
-17.55786438
  0
VERTEX
  8
0
 10
-179.80436249
 20
-18.25245168
  0
VERTEX
  8
0
 10
-180.43297229
 20
-18.97814278
  0
VERTEX
  8
0
 10
-181.02670837
 20
-19.73368103
  0
VERTEX
  8
0
 10
-181.58431411
 20
-20.51780982
  0
VERTEX
  8
0
 10
-182.10453287
 20
-21.32927248
  0
VERTEX
  8
0
 10
-182.58610800
 20
-22.16681240
  0
VERTEX
  8
0
 10
-183.02778288
 20
-23.02917292
  0
VERTEX
  8
0
 10
-183.42830086
 20
-23.91509742
  0
VERTEX
  8
0
 10
-183.78640531
 20
-24.82332926
  0
VERTEX
  8
0
 10
-184.10083959
 20
-25.75261179
  0
VERTEX
  8
0
 10
-184.37034706
 20
-26.70168839
  0
VERTEX
  8
0
 10
-184.59367108
 20
-27.66930241
  0
VERTEX
  8
0
 10
-184.76955503
 20
-28.65419722
  0
VERTEX
  8
0
 10
-184.89674225
 20
-29.65511618
  0
VERTEX
  8
0
 10
-184.97397612
 20
-30.67080265
  0
VERTEX
  8
0
 10
-185.00000000
 20
-31.70000000
  0
VERTEX
  8
0
 10
-184.97397612
 20
-32.72919735
  0
VERTEX
  8
0
 10
-184.89674225
 20
-33.74488382
  0
VERTEX
  8
0
 10
-184.76955503
 20
-34.74580278
  0
VERTEX
  8
0
 10
-184.59367108
 20
-35.73069759
  0
VERTEX
  8
0
 10
-184.37034706
 20
-36.69831161
  0
VERTEX
  8
0
 10
-184.10083959
 20
-37.64738821
  0
VERTEX
  8
0
 10
-183.78640531
 20
-38.57667074
  0
VERTEX
  8
0
 10
-183.42830086
 20
-39.48490258
  0
VERTEX
  8
0
 10
-183.02778288
 20
-40.37082708
  0
VERTEX
  8
0
 10
-182.58610800
 20
-41.23318760
  0
VERTEX
  8
0
 10
-182.10453287
 20
-42.07072752
  0
VERTEX
  8
0
 10
-181.58431411
 20
-42.88219018
  0
VERTEX
  8
0
 10
-181.02670837
 20
-43.66631897
  0
VERTEX
  8
0
 10
-180.43297229
 20
-44.42185722
  0
VERTEX
  8
0
 10
-179.80436249
 20
-45.14754832
  0
VERTEX
  8
0
 10
-179.14213562
 20
-45.84213562
  0
VERTEX
  8
0
 10
-178.44754832
 20
-46.50436249
  0
VERTEX
  8
0
 10
-177.72185722
 20
-47.13297229
  0
VERTEX
  8
0
 10
-176.96631897
 20
-47.72670837
  0
VERTEX
  8
0
 10
-176.18219018
 20
-48.28431411
  0
VERTEX
  8
0
 10
-175.37072752
 20
-48.80453287
  0
VERTEX
  8
0
 10
-174.53318760
 20
-49.28610800
  0
VERTEX
  8
0
 10
-173.67082708
 20
-49.72778288
  0
VERTEX
  8
0
 10
-172.78490258
 20
-50.12830086
  0
VERTEX
  8
0
 10
-171.87667074
 20
-50.48640531
  0
VERTEX
  8
0
 10
-170.94738821
 20
-50.80083959
  0
VERTEX
  8
0
 10
-169.99831161
 20
-51.07034706
  0
VERTEX
  8
0
 10
-169.03069759
 20
-51.29367108
  0
VERTEX
  8
0
 10
-168.04580278
 20
-51.46955503
  0
VERTEX
  8
0
 10
-167.04488382
 20
-51.59674225
  0
VERTEX
  8
0
 10
-166.02919735
 20
-51.67397612
  0
VERTEX
  8
0
 10
-165.00000000
 20
-51.70000000
  0
VERTEX
  8
0
 10
-163.97080265
 20
-51.67397612
  0
VERTEX
  8
0
 10
-162.95511618
 20
-51.59674225
  0
VERTEX
  8
0
 10
-161.95419722
 20
-51.46955503
  0
VERTEX
  8
0
 10
-160.96930241
 20
-51.29367108
  0
VERTEX
  8
0
 10
-160.00168839
 20
-51.07034706
  0
VERTEX
  8
0
 10
-159.05261179
 20
-50.80083959
  0
VERTEX
  8
0
 10
-158.12332926
 20
-50.48640531
  0
VERTEX
  8
0
 10
-157.21509742
 20
-50.12830086
  0
VERTEX
  8
0
 10
-156.32917292
 20
-49.72778288
  0
VERTEX
  8
0
 10
-155.46681240
 20
-49.28610800
  0
VERTEX
  8
0
 10
-154.62927248
 20
-48.80453287
  0
VERTEX
  8
0
 10
-153.81780982
 20
-48.28431411
  0
VERTEX
  8
0
 10
-153.03368103
 20
-47.72670837
  0
VERTEX
  8
0
 10
-152.27814278
 20
-47.13297229
  0
VERTEX
  8
0
 10
-151.55245168
 20
-46.50436249
  0
VERTEX
  8
0
 10
-150.85786438
 20
-45.84213562
  0
VERTEX
  8
0
 10
-150.19563751
 20
-45.14754832
  0
VERTEX
  8
0
 10
-149.56702771
 20
-44.42185722
  0
VERTEX
  8
0
 10
-148.97329163
 20
-43.66631897
  0
VERTEX
  8
0
 10
-148.41568589
 20
-42.88219018
  0
VERTEX
  8
0
 10
-147.89546713
 20
-42.07072752
  0
VERTEX
  8
0
 10
-147.41389200
 20
-41.23318760
  0
VERTEX
  8
0
 10
-146.97221712
 20
-40.37082708
  0
VERTEX
  8
0
 10
-146.57169914
 20
-39.48490258
  0
VERTEX
  8
0
 10
-146.21359469
 20
-38.57667074
  0
VERTEX
  8
0
 10
-145.89916041
 20
-37.64738821
  0
VERTEX
  8
0
 10
-145.62965294
 20
-36.69831161
  0
VERTEX
  8
0
 10
-145.40632892
 20
-35.73069759
  0
VERTEX
  8
0
 10
-145.23044497
 20
-34.74580278
  0
VERTEX
  8
0
 10
-145.10325775
 20
-33.74488382
  0
VERTEX
  8
0
 10
-145.02602388
 20
-32.72919735
  0
VERTEX
  8
0
 10
-145.00000000
 20
-31.70000000
  0
SEQEND
  0
POLYLINE
  8
Capa por Defecto
 66
   1
 39
0.000000
 70
    0
  0
VERTEX
  8
0
 10
-167.59855610
 20
-20.70000000
  0
VERTEX
  8
0
 10
-167.59860646
 20
-20.69991482
  0
SEQEND
  0
POLYLINE
  8
Capa por Defecto
 66
   1
 39
0.000000
 70
    0
  0
VERTEX
  8
0
 10
-167.59860646
 20
-20.69991482
  0
VERTEX
  8
0
 10
-167.59850000
 20
-20.70000000
  0
SEQEND
  0
POLYLINE
  8
Capa por Defecto
 66
   1
 39
0.000000
 70
    0
  0
VERTEX
  8
0
 10
-167.59855610
 20
-20.70000000
  0
VERTEX
  8
0
 10
-167.59860646
 20
-20.69991482
  0
SEQEND
  0
POLYLINE
  8
Capa por Defecto
 66
   1
 39
0.000000
 70
    0
  0
VERTEX
  8
0
 10
-167.59860646
 20
-20.69991482
  0
VERTEX
  8
0
 10
-167.59850000
 20
-20.70000000
  0
SEQEND
  0
POLYLINE
  8
Capa por Defecto
 66
   1
 39
0.000000
 70
    0
  0
VERTEX
  8
0
 10
-171.30350000
 20
-20.32800000
  0
VERTEX
  8
0
 10
-171.30276653
 20
-20.32762320
  0
SEQEND
  0
POLYLINE
  8
Capa por Defecto
 66
   1
 39
0.000000
 70
    0
  0
VERTEX
  8
0
 10
-171.30350000
 20
-20.32800000
  0
VERTEX
  8
0
 10
-171.30276653
 20
-20.32762320
  0
SEQEND
  0
POLYLINE
  8
Capa por Defecto
 66
   1
 39
0.000000
 70
    0
  0
VERTEX
  8
0
 10
-162.40144390
 20
-20.70000000
  0
VERTEX
  8
0
 10
-162.40139354
 20
-20.69991482
  0
SEQEND
  0
POLYLINE
  8
Capa por Defecto
 66
   1
 39
0.000000
 70
    0
  0
VERTEX
  8
0
 10
-162.40139354
 20
-20.69991482
  0
VERTEX
  8
0
 10
-162.40150000
 20
-20.70000000
  0
SEQEND
  0
POLYLINE
  8
Capa por Defecto
 66
   1
 39
0.000000
 70
    0
  0
VERTEX
  8
0
 10
-162.40144390
 20
-20.70000000
  0
VERTEX
  8
0
 10
-162.40139354
 20
-20.69991482
  0
SEQEND
  0
POLYLINE
  8
Capa por Defecto
 66
   1
 39
0.000000
 70
    0
  0
VERTEX
  8
0
 10
-107.40144390
 20
-20.70000000
  0
VERTEX
  8
0
 10
-107.40139354
 20
-20.69991482
  0
SEQEND
  0
POLYLINE
  8
Capa por Defecto
 66
   1
 39
0.000000
 70
    0
  0
VERTEX
  8
0
 10
-107.40139354
 20
-20.69991482
  0
VERTEX
  8
0
 10
-107.40150000
 20
-20.70000000
  0
SEQEND
  0
POLYLINE
  8
Capa por Defecto
 66
   1
 39
0.000000
 70
    0
  0
VERTEX
  8
0
 10
-107.40144390
 20
-20.70000000
  0
VERTEX
  8
0
 10
-107.40139354
 20
-20.69991482
  0
SEQEND
  0
POLYLINE
  8
Capa por Defecto
 66
   1
 39
0.000000
 70
    0
  0
VERTEX
  8
0
 10
-107.40139354
 20
-20.69991482
  0
VERTEX
  8
0
 10
-107.40150000
 20
-20.70000000
  0
SEQEND
  0
POLYLINE
  8
Capa por Defecto
 66
   1
 39
0.000000
 70
    1
  0
VERTEX
  8
0
 10
64.45000000
 20
31.70000000
  0
VERTEX
  8
0
 10
64.43770372
 20
32.18629575
  0
VERTEX
  8
0
 10
64.40121072
 20
32.66620760
  0
VERTEX
  8
0
 10
64.34111475
 20
33.13914181
  0
VERTEX
  8
0
 10
64.25800959
 20
33.60450461
  0
VERTEX
  8
0
 10
64.15248898
 20
34.06170224
  0
VERTEX
  8
0
 10
64.02514670
 20
34.51014093
  0
VERTEX
  8
0
 10
63.87657651
 20
34.94922692
  0
VERTEX
  8
0
 10
63.70737216
 20
35.37836647
  0
VERTEX
  8
0
 10
63.51812741
 20
35.79696579
  0
VERTEX
  8
0
 10
63.30943603
 20
36.20443114
  0
VERTEX
  8
0
 10
63.08189178
 20
36.60016875
  0
VERTEX
  8
0
 10
62.83608842
 20
36.98358486
  0
VERTEX
  8
0
 10
62.57261971
 20
37.35408571
  0
VERTEX
  8
0
 10
62.29207940
 20
37.71107754
  0
VERTEX
  8
0
 10
61.99506128
 20
38.05396658
  0
VERTEX
  8
0
 10
61.68215908
 20
38.38215908
  0
VERTEX
  8
0
 10
61.35396658
 20
38.69506128
  0
VERTEX
  8
0
 10
61.01107754
 20
38.99207940
  0
VERTEX
  8
0
 10
60.65408571
 20
39.27261971
  0
VERTEX
  8
0
 10
60.28358486
 20
39.53608842
  0
VERTEX
  8
0
 10
59.90016875
 20
39.78189178
  0
VERTEX
  8
0
 10
59.50443114
 20
40.00943603
  0
VERTEX
  8
0
 10
59.09696579
 20
40.21812741
  0
VERTEX
  8
0
 10
58.67836647
 20
40.40737216
  0
VERTEX
  8
0
 10
58.24922692
 20
40.57657651
  0
VERTEX
  8
0
 10
57.81014093
 20
40.72514670
  0
VERTEX
  8
0
 10
57.36170224
 20
40.85248898
  0
VERTEX
  8
0
 10
56.90450461
 20
40.95800959
  0
VERTEX
  8
0
 10
56.43914181
 20
41.04111475
  0
VERTEX
  8
0
 10
55.96620760
 20
41.10121072
  0
VERTEX
  8
0
 10
55.48629575
 20
41.13770372
  0
VERTEX
  8
0
 10
55.00000000
 20
41.15000000
  0
VERTEX
  8
0
 10
54.51370425
 20
41.13770372
  0
VERTEX
  8
0
 10
54.03379240
 20
41.10121072
  0
VERTEX
  8
0
 10
53.56085819
 20
41.04111475
  0
VERTEX
  8
0
 10
53.09549539
 20
40.95800959
  0
VERTEX
  8
0
 10
52.63829776
 20
40.85248898
  0
VERTEX
  8
0
 10
52.18985907
 20
40.72514670
  0
VERTEX
  8
0
 10
51.75077308
 20
40.57657651
  0
VERTEX
  8
0
 10
51.32163353
 20
40.40737216
  0
VERTEX
  8
0
 10
50.90303421
 20
40.21812741
  0
VERTEX
  8
0
 10
50.49556886
 20
40.00943603
  0
VERTEX
  8
0
 10
50.09983125
 20
39.78189178
  0
VERTEX
  8
0
 10
49.71641514
 20
39.53608842
  0
VERTEX
  8
0
 10
49.34591429
 20
39.27261971
  0
VERTEX
  8
0
 10
48.98892246
 20
38.99207940
  0
VERTEX
  8
0
 10
48.64603342
 20
38.69506128
  0
VERTEX
  8
0
 10
48.31784092
 20
38.38215908
  0
VERTEX
  8
0
 10
48.00493872
 20
38.05396658
  0
VERTEX
  8
0
 10
47.70792060
 20
37.71107754
  0
VERTEX
  8
0
 10
47.42738029
 20
37.35408571
  0
VERTEX
  8
0
 10
47.16391158
 20
36.98358486
  0
VERTEX
  8
0
 10
46.91810822
 20
36.60016875
  0
VERTEX
  8
0
 10
46.69056397
 20
36.20443114
  0
VERTEX
  8
0
 10
46.48187259
 20
35.79696579
  0
VERTEX
  8
0
 10
46.29262784
 20
35.37836647
  0
VERTEX
  8
0
 10
46.12342349
 20
34.94922692
  0
VERTEX
  8
0
 10
45.97485330
 20
34.51014093
  0
VERTEX
  8
0
 10
45.84751102
 20
34.06170224
  0
VERTEX
  8
0
 10
45.74199041
 20
33.60450461
  0
VERTEX
  8
0
 10
45.65888525
 20
33.13914181
  0
VERTEX
  8
0
 10
45.59878928
 20
32.66620760
  0
VERTEX
  8
0
 10
45.56229628
 20
32.18629575
  0
VERTEX
  8
0
 10
45.55000000
 20
31.70000000
  0
VERTEX
  8
0
 10
45.56229628
 20
31.21370425
  0
VERTEX
  8
0
 10
45.59878928
 20
30.73379240
  0
VERTEX
  8
0
 10
45.65888525
 20
30.26085819
  0
VERTEX
  8
0
 10
45.74199041
 20
29.79549539
  0
VERTEX
  8
0
 10
45.84751102
 20
29.33829776
  0
VERTEX
  8
0
 10
45.97485330
 20
28.88985907
  0
VERTEX
  8
0
 10
46.12342349
 20
28.45077308
  0
VERTEX
  8
0
 10
46.29262784
 20
28.02163353
  0
VERTEX
  8
0
 10
46.48187259
 20
27.60303421
  0
VERTEX
  8
0
 10
46.69056397
 20
27.19556886
  0
VERTEX
  8
0
 10
46.91810822
 20
26.79983125
  0
VERTEX
  8
0
 10
47.16391158
 20
26.41641514
  0
VERTEX
  8
0
 10
47.42738029
 20
26.04591429
  0
VERTEX
  8
0
 10
47.70792060
 20
25.68892246
  0
VERTEX
  8
0
 10
48.00493872
 20
25.34603342
  0
VERTEX
  8
0
 10
48.31784092
 20
25.01784092
  0
VERTEX
  8
0
 10
48.64603342
 20
24.70493872
  0
VERTEX
  8
0
 10
48.98892246
 20
24.40792060
  0
VERTEX
  8
0
 10
49.34591429
 20
24.12738029
  0
VERTEX
  8
0
 10
49.71641514
 20
23.86391158
  0
VERTEX
  8
0
 10
50.09983125
 20
23.61810822
  0
VERTEX
  8
0
 10
50.49556886
 20
23.39056397
  0
VERTEX
  8
0
 10
50.90303421
 20
23.18187259
  0
VERTEX
  8
0
 10
51.32163353
 20
22.99262784
  0
VERTEX
  8
0
 10
51.75077308
 20
22.82342349
  0
VERTEX
  8
0
 10
52.18985907
 20
22.67485330
  0
VERTEX
  8
0
 10
52.63829776
 20
22.54751102
  0
VERTEX
  8
0
 10
53.09549539
 20
22.44199041
  0
VERTEX
  8
0
 10
53.56085819
 20
22.35888525
  0
VERTEX
  8
0
 10
54.03379240
 20
22.29878928
  0
VERTEX
  8
0
 10
54.51370425
 20
22.26229628
  0
VERTEX
  8
0
 10
55.00000000
 20
22.25000000
  0
VERTEX
  8
0
 10
55.48629575
 20
22.26229628
  0
VERTEX
  8
0
 10
55.96620760
 20
22.29878928
  0
VERTEX
  8
0
 10
56.43914181
 20
22.35888525
  0
VERTEX
  8
0
 10
56.90450461
 20
22.44199041
  0
VERTEX
  8
0
 10
57.36170224
 20
22.54751102
  0
VERTEX
  8
0
 10
57.81014093
 20
22.67485330
  0
VERTEX
  8
0
 10
58.24922692
 20
22.82342349
  0
VERTEX
  8
0
 10
58.67836647
 20
22.99262784
  0
VERTEX
  8
0
 10
59.09696579
 20
23.18187259
  0
VERTEX
  8
0
 10
59.50443114
 20
23.39056397
  0
VERTEX
  8
0
 10
59.90016875
 20
23.61810822
  0
VERTEX
  8
0
 10
60.28358486
 20
23.86391158
  0
VERTEX
  8
0
 10
60.65408571
 20
24.12738029
  0
VERTEX
  8
0
 10
61.01107754
 20
24.40792060
  0
VERTEX
  8
0
 10
61.35396658
 20
24.70493872
  0
VERTEX
  8
0
 10
61.68215908
 20
25.01784092
  0
VERTEX
  8
0
 10
61.99506128
 20
25.34603342
  0
VERTEX
  8
0
 10
62.29207940
 20
25.68892246
  0
VERTEX
  8
0
 10
62.57261971
 20
26.04591429
  0
VERTEX
  8
0
 10
62.83608842
 20
26.41641514
  0
VERTEX
  8
0
 10
63.08189178
 20
26.79983125
  0
VERTEX
  8
0
 10
63.30943603
 20
27.19556886
  0
VERTEX
  8
0
 10
63.51812741
 20
27.60303421
  0
VERTEX
  8
0
 10
63.70737216
 20
28.02163353
  0
VERTEX
  8
0
 10
63.87657651
 20
28.45077308
  0
VERTEX
  8
0
 10
64.02514670
 20
28.88985907
  0
VERTEX
  8
0
 10
64.15248898
 20
29.33829776
  0
VERTEX
  8
0
 10
64.25800959
 20
29.79549539
  0
VERTEX
  8
0
 10
64.34111475
 20
30.26085819
  0
VERTEX
  8
0
 10
64.40121072
 20
30.73379240
  0
VERTEX
  8
0
 10
64.43770372
 20
31.21370425
  0
VERTEX
  8
0
 10
64.45000000
 20
31.70000000
  0
SEQEND
  0
POLYLINE
  8
Capa por Defecto
 66
   1
 39
0.000000
 70
    1
  0
VERTEX
  8
0
 10
-45.55000000
 20
-31.70000000
  0
VERTEX
  8
0
 10
-45.56229628
 20
-31.21370425
  0
VERTEX
  8
0
 10
-45.59878928
 20
-30.73379240
  0
VERTEX
  8
0
 10
-45.65888525
 20
-30.26085819
  0
VERTEX
  8
0
 10
-45.74199041
 20
-29.79549539
  0
VERTEX
  8
0
 10
-45.84751102
 20
-29.33829776
  0
VERTEX
  8
0
 10
-45.97485330
 20
-28.88985907
  0
VERTEX
  8
0
 10
-46.12342349
 20
-28.45077308
  0
VERTEX
  8
0
 10
-46.29262784
 20
-28.02163353
  0
VERTEX
  8
0
 10
-46.48187259
 20
-27.60303421
  0
VERTEX
  8
0
 10
-46.69056397
 20
-27.19556886
  0
VERTEX
  8
0
 10
-46.91810822
 20
-26.79983125
  0
VERTEX
  8
0
 10
-47.16391158
 20
-26.41641514
  0
VERTEX
  8
0
 10
-47.42738029
 20
-26.04591429
  0
VERTEX
  8
0
 10
-47.70792060
 20
-25.68892246
  0
VERTEX
  8
0
 10
-48.00493872
 20
-25.34603342
  0
VERTEX
  8
0
 10
-48.31784092
 20
-25.01784092
  0
VERTEX
  8
0
 10
-48.64603342
 20
-24.70493872
  0
VERTEX
  8
0
 10
-48.98892246
 20
-24.40792060
  0
VERTEX
  8
0
 10
-49.34591429
 20
-24.12738029
  0
VERTEX
  8
0
 10
-49.71641514
 20
-23.86391158
  0
VERTEX
  8
0
 10
-50.09983125
 20
-23.61810822
  0
VERTEX
  8
0
 10
-50.49556886
 20
-23.39056397
  0
VERTEX
  8
0
 10
-50.90303421
 20
-23.18187259
  0
VERTEX
  8
0
 10
-51.32163353
 20
-22.99262784
  0
VERTEX
  8
0
 10
-51.75077308
 20
-22.82342349
  0
VERTEX
  8
0
 10
-52.18985907
 20
-22.67485330
  0
VERTEX
  8
0
 10
-52.63829776
 20
-22.54751102
  0
VERTEX
  8
0
 10
-53.09549539
 20
-22.44199041
  0
VERTEX
  8
0
 10
-53.56085819
 20
-22.35888525
  0
VERTEX
  8
0
 10
-54.03379240
 20
-22.29878928
  0
VERTEX
  8
0
 10
-54.51370425
 20
-22.26229628
  0
VERTEX
  8
0
 10
-55.00000000
 20
-22.25000000
  0
VERTEX
  8
0
 10
-55.48629575
 20
-22.26229628
  0
VERTEX
  8
0
 10
-55.96620760
 20
-22.29878928
  0
VERTEX
  8
0
 10
-56.43914181
 20
-22.35888525
  0
VERTEX
  8
0
 10
-56.90450461
 20
-22.44199041
  0
VERTEX
  8
0
 10
-57.36170224
 20
-22.54751102
  0
VERTEX
  8
0
 10
-57.81014093
 20
-22.67485330
  0
VERTEX
  8
0
 10
-58.24922692
 20
-22.82342349
  0
VERTEX
  8
0
 10
-58.67836647
 20
-22.99262784
  0
VERTEX
  8
0
 10
-59.09696579
 20
-23.18187259
  0
VERTEX
  8
0
 10
-59.50443114
 20
-23.39056397
  0
VERTEX
  8
0
 10
-59.90016875
 20
-23.61810822
  0
VERTEX
  8
0
 10
-60.28358486
 20
-23.86391158
  0
VERTEX
  8
0
 10
-60.65408571
 20
-24.12738029
  0
VERTEX
  8
0
 10
-61.01107754
 20
-24.40792060
  0
VERTEX
  8
0
 10
-61.35396658
 20
-24.70493872
  0
VERTEX
  8
0
 10
-61.68215908
 20
-25.01784092
  0
VERTEX
  8
0
 10
-61.99506128
 20
-25.34603342
  0
VERTEX
  8
0
 10
-62.29207940
 20
-25.68892246
  0
VERTEX
  8
0
 10
-62.57261971
 20
-26.04591429
  0
VERTEX
  8
0
 10
-62.83608842
 20
-26.41641514
  0
VERTEX
  8
0
 10
-63.08189178
 20
-26.79983125
  0
VERTEX
  8
0
 10
-63.30943603
 20
-27.19556886
  0
VERTEX
  8
0
 10
-63.51812741
 20
-27.60303421
  0
VERTEX
  8
0
 10
-63.70737216
 20
-28.02163353
  0
VERTEX
  8
0
 10
-63.87657651
 20
-28.45077308
  0
VERTEX
  8
0
 10
-64.02514670
 20
-28.88985907
  0
VERTEX
  8
0
 10
-64.15248898
 20
-29.33829776
  0
VERTEX
  8
0
 10
-64.25800959
 20
-29.79549539
  0
VERTEX
  8
0
 10
-64.34111475
 20
-30.26085819
  0
VERTEX
  8
0
 10
-64.40121072
 20
-30.73379240
  0
VERTEX
  8
0
 10
-64.43770372
 20
-31.21370425
  0
VERTEX
  8
0
 10
-64.45000000
 20
-31.70000000
  0
VERTEX
  8
0
 10
-64.43770372
 20
-32.18629575
  0
VERTEX
  8
0
 10
-64.40121072
 20
-32.66620760
  0
VERTEX
  8
0
 10
-64.34111475
 20
-33.13914181
  0
VERTEX
  8
0
 10
-64.25800959
 20
-33.60450461
  0
VERTEX
  8
0
 10
-64.15248898
 20
-34.06170224
  0
VERTEX
  8
0
 10
-64.02514670
 20
-34.51014093
  0
VERTEX
  8
0
 10
-63.87657651
 20
-34.94922692
  0
VERTEX
  8
0
 10
-63.70737216
 20
-35.37836647
  0
VERTEX
  8
0
 10
-63.51812741
 20
-35.79696579
  0
VERTEX
  8
0
 10
-63.30943603
 20
-36.20443114
  0
VERTEX
  8
0
 10
-63.08189178
 20
-36.60016875
  0
VERTEX
  8
0
 10
-62.83608842
 20
-36.98358486
  0
VERTEX
  8
0
 10
-62.57261971
 20
-37.35408571
  0
VERTEX
  8
0
 10
-62.29207940
 20
-37.71107754
  0
VERTEX
  8
0
 10
-61.99506128
 20
-38.05396658
  0
VERTEX
  8
0
 10
-61.68215908
 20
-38.38215908
  0
VERTEX
  8
0
 10
-61.35396658
 20
-38.69506128
  0
VERTEX
  8
0
 10
-61.01107754
 20
-38.99207940
  0
VERTEX
  8
0
 10
-60.65408571
 20
-39.27261971
  0
VERTEX
  8
0
 10
-60.28358486
 20
-39.53608842
  0
VERTEX
  8
0
 10
-59.90016875
 20
-39.78189178
  0
VERTEX
  8
0
 10
-59.50443114
 20
-40.00943603
  0
VERTEX
  8
0
 10
-59.09696579
 20
-40.21812741
  0
VERTEX
  8
0
 10
-58.67836647
 20
-40.40737216
  0
VERTEX
  8
0
 10
-58.24922692
 20
-40.57657651
  0
VERTEX
  8
0
 10
-57.81014093
 20
-40.72514670
  0
VERTEX
  8
0
 10
-57.36170224
 20
-40.85248898
  0
VERTEX
  8
0
 10
-56.90450461
 20
-40.95800959
  0
VERTEX
  8
0
 10
-56.43914181
 20
-41.04111475
  0
VERTEX
  8
0
 10
-55.96620760
 20
-41.10121072
  0
VERTEX
  8
0
 10
-55.48629575
 20
-41.13770372
  0
VERTEX
  8
0
 10
-55.00000000
 20
-41.15000000
  0
VERTEX
  8
0
 10
-54.51370425
 20
-41.13770372
  0
VERTEX
  8
0
 10
-54.03379240
 20
-41.10121072
  0
VERTEX
  8
0
 10
-53.56085819
 20
-41.04111475
  0
VERTEX
  8
0
 10
-53.09549539
 20
-40.95800959
  0
VERTEX
  8
0
 10
-52.63829776
 20
-40.85248898
  0
VERTEX
  8
0
 10
-52.18985907
 20
-40.72514670
  0
VERTEX
  8
0
 10
-51.75077308
 20
-40.57657651
  0
VERTEX
  8
0
 10
-51.32163353
 20
-40.40737216
  0
VERTEX
  8
0
 10
-50.90303421
 20
-40.21812741
  0
VERTEX
  8
0
 10
-50.49556886
 20
-40.00943603
  0
VERTEX
  8
0
 10
-50.09983125
 20
-39.78189178
  0
VERTEX
  8
0
 10
-49.71641514
 20
-39.53608842
  0
VERTEX
  8
0
 10
-49.34591429
 20
-39.27261971
  0
VERTEX
  8
0
 10
-48.98892246
 20
-38.99207940
  0
VERTEX
  8
0
 10
-48.64603342
 20
-38.69506128
  0
VERTEX
  8
0
 10
-48.31784092
 20
-38.38215908
  0
VERTEX
  8
0
 10
-48.00493872
 20
-38.05396658
  0
VERTEX
  8
0
 10
-47.70792060
 20
-37.71107754
  0
VERTEX
  8
0
 10
-47.42738029
 20
-37.35408571
  0
VERTEX
  8
0
 10
-47.16391158
 20
-36.98358486
  0
VERTEX
  8
0
 10
-46.91810822
 20
-36.60016875
  0
VERTEX
  8
0
 10
-46.69056397
 20
-36.20443114
  0
VERTEX
  8
0
 10
-46.48187259
 20
-35.79696579
  0
VERTEX
  8
0
 10
-46.29262784
 20
-35.37836647
  0
VERTEX
  8
0
 10
-46.12342349
 20
-34.94922692
  0
VERTEX
  8
0
 10
-45.97485330
 20
-34.51014093
  0
VERTEX
  8
0
 10
-45.84751102
 20
-34.06170224
  0
VERTEX
  8
0
 10
-45.74199041
 20
-33.60450461
  0
VERTEX
  8
0
 10
-45.65888525
 20
-33.13914181
  0
VERTEX
  8
0
 10
-45.59878928
 20
-32.66620760
  0
VERTEX
  8
0
 10
-45.56229628
 20
-32.18629575
  0
VERTEX
  8
0
 10
-45.55000000
 20
-31.70000000
  0
SEQEND
  0
POLYLINE
  8
Capa por Defecto
 66
   1
 39
0.000000
 70
    1
  0
VERTEX
  8
0
 10
9.45000000
 20
-31.70000000
  0
VERTEX
  8
0
 10
9.43770372
 20
-31.21370425
  0
VERTEX
  8
0
 10
9.40121072
 20
-30.73379240
  0
VERTEX
  8
0
 10
9.34111475
 20
-30.26085819
  0
VERTEX
  8
0
 10
9.25800959
 20
-29.79549539
  0
VERTEX
  8
0
 10
9.15248898
 20
-29.33829776
  0
VERTEX
  8
0
 10
9.02514670
 20
-28.88985907
  0
VERTEX
  8
0
 10
8.87657651
 20
-28.45077308
  0
VERTEX
  8
0
 10
8.70737216
 20
-28.02163353
  0
VERTEX
  8
0
 10
8.51812741
 20
-27.60303421
  0
VERTEX
  8
0
 10
8.30943603
 20
-27.19556886
  0
VERTEX
  8
0
 10
8.08189178
 20
-26.79983125
  0
VERTEX
  8
0
 10
7.83608842
 20
-26.41641514
  0
VERTEX
  8
0
 10
7.57261971
 20
-26.04591429
  0
VERTEX
  8
0
 10
7.29207940
 20
-25.68892246
  0
VERTEX
  8
0
 10
6.99506128
 20
-25.34603342
  0
VERTEX
  8
0
 10
6.68215908
 20
-25.01784092
  0
VERTEX
  8
0
 10
6.35396658
 20
-24.70493872
  0
VERTEX
  8
0
 10
6.01107754
 20
-24.40792060
  0
VERTEX
  8
0
 10
5.65408571
 20
-24.12738029
  0
VERTEX
  8
0
 10
5.28358486
 20
-23.86391158
  0
VERTEX
  8
0
 10
4.90016875
 20
-23.61810822
  0
VERTEX
  8
0
 10
4.50443114
 20
-23.39056397
  0
VERTEX
  8
0
 10
4.09696579
 20
-23.18187259
  0
VERTEX
  8
0
 10
3.67836647
 20
-22.99262784
  0
VERTEX
  8
0
 10
3.24922692
 20
-22.82342349
  0
VERTEX
  8
0
 10
2.81014093
 20
-22.67485330
  0
VERTEX
  8
0
 10
2.36170224
 20
-22.54751102
  0
VERTEX
  8
0
 10
1.90450461
 20
-22.44199041
  0
VERTEX
  8
0
 10
1.43914181
 20
-22.35888525
  0
VERTEX
  8
0
 10
0.96620760
 20
-22.29878928
  0
VERTEX
  8
0
 10
0.48629575
 20
-22.26229628
  0
VERTEX
  8
0
 10
0.00000000
 20
-22.25000000
  0
VERTEX
  8
0
 10
-0.48629575
 20
-22.26229628
  0
VERTEX
  8
0
 10
-0.96620760
 20
-22.29878928
  0
VERTEX
  8
0
 10
-1.43914181
 20
-22.35888525
  0
VERTEX
  8
0
 10
-1.90450461
 20
-22.44199041
  0
VERTEX
  8
0
 10
-2.36170224
 20
-22.54751102
  0
VERTEX
  8
0
 10
-2.81014093
 20
-22.67485330
  0
VERTEX
  8
0
 10
-3.24922692
 20
-22.82342349
  0
VERTEX
  8
0
 10
-3.67836647
 20
-22.99262784
  0
VERTEX
  8
0
 10
-4.09696579
 20
-23.18187259
  0
VERTEX
  8
0
 10
-4.50443114
 20
-23.39056397
  0
VERTEX
  8
0
 10
-4.90016875
 20
-23.61810822
  0
VERTEX
  8
0
 10
-5.28358486
 20
-23.86391158
  0
VERTEX
  8
0
 10
-5.65408571
 20
-24.12738029
  0
VERTEX
  8
0
 10
-6.01107754
 20
-24.40792060
  0
VERTEX
  8
0
 10
-6.35396658
 20
-24.70493872
  0
VERTEX
  8
0
 10
-6.68215908
 20
-25.01784092
  0
VERTEX
  8
0
 10
-6.99506128
 20
-25.34603342
  0
VERTEX
  8
0
 10
-7.29207940
 20
-25.68892246
  0
VERTEX
  8
0
 10
-7.57261971
 20
-26.04591429
  0
VERTEX
  8
0
 10
-7.83608842
 20
-26.41641514
  0
VERTEX
  8
0
 10
-8.08189178
 20
-26.79983125
  0
VERTEX
  8
0
 10
-8.30943603
 20
-27.19556886
  0
VERTEX
  8
0
 10
-8.51812741
 20
-27.60303421
  0
VERTEX
  8
0
 10
-8.70737216
 20
-28.02163353
  0
VERTEX
  8
0
 10
-8.87657651
 20
-28.45077308
  0
VERTEX
  8
0
 10
-9.02514670
 20
-28.88985907
  0
VERTEX
  8
0
 10
-9.15248898
 20
-29.33829776
  0
VERTEX
  8
0
 10
-9.25800959
 20
-29.79549539
  0
VERTEX
  8
0
 10
-9.34111475
 20
-30.26085819
  0
VERTEX
  8
0
 10
-9.40121072
 20
-30.73379240
  0
VERTEX
  8
0
 10
-9.43770372
 20
-31.21370425
  0
VERTEX
  8
0
 10
-9.45000000
 20
-31.70000000
  0
VERTEX
  8
0
 10
-9.43770372
 20
-32.18629575
  0
VERTEX
  8
0
 10
-9.40121072
 20
-32.66620760
  0
VERTEX
  8
0
 10
-9.34111475
 20
-33.13914181
  0
VERTEX
  8
0
 10
-9.25800959
 20
-33.60450461
  0
VERTEX
  8
0
 10
-9.15248898
 20
-34.06170224
  0
VERTEX
  8
0
 10
-9.02514670
 20
-34.51014093
  0
VERTEX
  8
0
 10
-8.87657651
 20
-34.94922692
  0
VERTEX
  8
0
 10
-8.70737216
 20
-35.37836647
  0
VERTEX
  8
0
 10
-8.51812741
 20
-35.79696579
  0
VERTEX
  8
0
 10
-8.30943603
 20
-36.20443114
  0
VERTEX
  8
0
 10
-8.08189178
 20
-36.60016875
  0
VERTEX
  8
0
 10
-7.83608842
 20
-36.98358486
  0
VERTEX
  8
0
 10
-7.57261971
 20
-37.35408571
  0
VERTEX
  8
0
 10
-7.29207940
 20
-37.71107754
  0
VERTEX
  8
0
 10
-6.99506128
 20
-38.05396658
  0
VERTEX
  8
0
 10
-6.68215908
 20
-38.38215908
  0
VERTEX
  8
0
 10
-6.35396658
 20
-38.69506128
  0
VERTEX
  8
0
 10
-6.01107754
 20
-38.99207940
  0
VERTEX
  8
0
 10
-5.65408571
 20
-39.27261971
  0
VERTEX
  8
0
 10
-5.28358486
 20
-39.53608842
  0
VERTEX
  8
0
 10
-4.90016875
 20
-39.78189178
  0
VERTEX
  8
0
 10
-4.50443114
 20
-40.00943603
  0
VERTEX
  8
0
 10
-4.09696579
 20
-40.21812741
  0
VERTEX
  8
0
 10
-3.67836647
 20
-40.40737216
  0
VERTEX
  8
0
 10
-3.24922692
 20
-40.57657651
  0
VERTEX
  8
0
 10
-2.81014093
 20
-40.72514670
  0
VERTEX
  8
0
 10
-2.36170224
 20
-40.85248898
  0
VERTEX
  8
0
 10
-1.90450461
 20
-40.95800959
  0
VERTEX
  8
0
 10
-1.43914181
 20
-41.04111475
  0
VERTEX
  8
0
 10
-0.96620760
 20
-41.10121072
  0
VERTEX
  8
0
 10
-0.48629575
 20
-41.13770372
  0
VERTEX
  8
0
 10
0.00000000
 20
-41.15000000
  0
VERTEX
  8
0
 10
0.48629575
 20
-41.13770372
  0
VERTEX
  8
0
 10
0.96620760
 20
-41.10121072
  0
VERTEX
  8
0
 10
1.43914181
 20
-41.04111475
  0
VERTEX
  8
0
 10
1.90450461
 20
-40.95800959
  0
VERTEX
  8
0
 10
2.36170224
 20
-40.85248898
  0
VERTEX
  8
0
 10
2.81014093
 20
-40.72514670
  0
VERTEX
  8
0
 10
3.24922692
 20
-40.57657651
  0
VERTEX
  8
0
 10
3.67836647
 20
-40.40737216
  0
VERTEX
  8
0
 10
4.09696579
 20
-40.21812741
  0
VERTEX
  8
0
 10
4.50443114
 20
-40.00943603
  0
VERTEX
  8
0
 10
4.90016875
 20
-39.78189178
  0
VERTEX
  8
0
 10
5.28358486
 20
-39.53608842
  0
VERTEX
  8
0
 10
5.65408571
 20
-39.27261971
  0
VERTEX
  8
0
 10
6.01107754
 20
-38.99207940
  0
VERTEX
  8
0
 10
6.35396658
 20
-38.69506128
  0
VERTEX
  8
0
 10
6.68215908
 20
-38.38215908
  0
VERTEX
  8
0
 10
6.99506128
 20
-38.05396658
  0
VERTEX
  8
0
 10
7.29207940
 20
-37.71107754
  0
VERTEX
  8
0
 10
7.57261971
 20
-37.35408571
  0
VERTEX
  8
0
 10
7.83608842
 20
-36.98358486
  0
VERTEX
  8
0
 10
8.08189178
 20
-36.60016875
  0
VERTEX
  8
0
 10
8.30943603
 20
-36.20443114
  0
VERTEX
  8
0
 10
8.51812741
 20
-35.79696579
  0
VERTEX
  8
0
 10
8.70737216
 20
-35.37836647
  0
VERTEX
  8
0
 10
8.87657651
 20
-34.94922692
  0
VERTEX
  8
0
 10
9.02514670
 20
-34.51014093
  0
VERTEX
  8
0
 10
9.15248898
 20
-34.06170224
  0
VERTEX
  8
0
 10
9.25800959
 20
-33.60450461
  0
VERTEX
  8
0
 10
9.34111475
 20
-33.13914181
  0
VERTEX
  8
0
 10
9.40121072
 20
-32.66620760
  0
VERTEX
  8
0
 10
9.43770372
 20
-32.18629575
  0
VERTEX
  8
0
 10
9.45000000
 20
-31.70000000
  0
SEQEND
  0
POLYLINE
  8
Capa por Defecto
 66
   1
 39
0.000000
 70
    1
  0
VERTEX
  8
0
 10
64.45000000
 20
-31.70000000
  0
VERTEX
  8
0
 10
64.43770372
 20
-31.21370425
  0
VERTEX
  8
0
 10
64.40121072
 20
-30.73379240
  0
VERTEX
  8
0
 10
64.34111475
 20
-30.26085819
  0
VERTEX
  8
0
 10
64.25800959
 20
-29.79549539
  0
VERTEX
  8
0
 10
64.15248898
 20
-29.33829776
  0
VERTEX
  8
0
 10
64.02514670
 20
-28.88985907
  0
VERTEX
  8
0
 10
63.87657651
 20
-28.45077308
  0
VERTEX
  8
0
 10
63.70737216
 20
-28.02163353
  0
VERTEX
  8
0
 10
63.51812741
 20
-27.60303421
  0
VERTEX
  8
0
 10
63.30943603
 20
-27.19556886
  0
VERTEX
  8
0
 10
63.08189178
 20
-26.79983125
  0
VERTEX
  8
0
 10
62.83608842
 20
-26.41641514
  0
VERTEX
  8
0
 10
62.57261971
 20
-26.04591429
  0
VERTEX
  8
0
 10
62.29207940
 20
-25.68892246
  0
VERTEX
  8
0
 10
61.99506128
 20
-25.34603342
  0
VERTEX
  8
0
 10
61.68215908
 20
-25.01784092
  0
VERTEX
  8
0
 10
61.35396658
 20
-24.70493872
  0
VERTEX
  8
0
 10
61.01107754
 20
-24.40792060
  0
VERTEX
  8
0
 10
60.65408571
 20
-24.12738029
  0
VERTEX
  8
0
 10
60.28358486
 20
-23.86391158
  0
VERTEX
  8
0
 10
59.90016875
 20
-23.61810822
  0
VERTEX
  8
0
 10
59.50443114
 20
-23.39056397
  0
VERTEX
  8
0
 10
59.09696579
 20
-23.18187259
  0
VERTEX
  8
0
 10
58.67836647
 20
-22.99262784
  0
VERTEX
  8
0
 10
58.24922692
 20
-22.82342349
  0
VERTEX
  8
0
 10
57.81014093
 20
-22.67485330
  0
VERTEX
  8
0
 10
57.36170224
 20
-22.54751102
  0
VERTEX
  8
0
 10
56.90450461
 20
-22.44199041
  0
VERTEX
  8
0
 10
56.43914181
 20
-22.35888525
  0
VERTEX
  8
0
 10
55.96620760
 20
-22.29878928
  0
VERTEX
  8
0
 10
55.48629575
 20
-22.26229628
  0
VERTEX
  8
0
 10
55.00000000
 20
-22.25000000
  0
VERTEX
  8
0
 10
54.51370425
 20
-22.26229628
  0
VERTEX
  8
0
 10
54.03379240
 20
-22.29878928
  0
VERTEX
  8
0
 10
53.56085819
 20
-22.35888525
  0
VERTEX
  8
0
 10
53.09549539
 20
-22.44199041
  0
VERTEX
  8
0
 10
52.63829776
 20
-22.54751102
  0
VERTEX
  8
0
 10
52.18985907
 20
-22.67485330
  0
VERTEX
  8
0
 10
51.75077308
 20
-22.82342349
  0
VERTEX
  8
0
 10
51.32163353
 20
-22.99262784
  0
VERTEX
  8
0
 10
50.90303421
 20
-23.18187259
  0
VERTEX
  8
0
 10
50.49556886
 20
-23.39056397
  0
VERTEX
  8
0
 10
50.09983125
 20
-23.61810822
  0
VERTEX
  8
0
 10
49.71641514
 20
-23.86391158
  0
VERTEX
  8
0
 10
49.34591429
 20
-24.12738029
  0
VERTEX
  8
0
 10
48.98892246
 20
-24.40792060
  0
VERTEX
  8
0
 10
48.64603342
 20
-24.70493872
  0
VERTEX
  8
0
 10
48.31784092
 20
-25.01784092
  0
VERTEX
  8
0
 10
48.00493872
 20
-25.34603342
  0
VERTEX
  8
0
 10
47.70792060
 20
-25.68892246
  0
VERTEX
  8
0
 10
47.42738029
 20
-26.04591429
  0
VERTEX
  8
0
 10
47.16391158
 20
-26.41641514
  0
VERTEX
  8
0
 10
46.91810822
 20
-26.79983125
  0
VERTEX
  8
0
 10
46.69056397
 20
-27.19556886
  0
VERTEX
  8
0
 10
46.48187259
 20
-27.60303421
  0
VERTEX
  8
0
 10
46.29262784
 20
-28.02163353
  0
VERTEX
  8
0
 10
46.12342349
 20
-28.45077308
  0
VERTEX
  8
0
 10
45.97485330
 20
-28.88985907
  0
VERTEX
  8
0
 10
45.84751102
 20
-29.33829776
  0
VERTEX
  8
0
 10
45.74199041
 20
-29.79549539
  0
VERTEX
  8
0
 10
45.65888525
 20
-30.26085819
  0
VERTEX
  8
0
 10
45.59878928
 20
-30.73379240
  0
VERTEX
  8
0
 10
45.56229628
 20
-31.21370425
  0
VERTEX
  8
0
 10
45.55000000
 20
-31.70000000
  0
VERTEX
  8
0
 10
45.56229628
 20
-32.18629575
  0
VERTEX
  8
0
 10
45.59878928
 20
-32.66620760
  0
VERTEX
  8
0
 10
45.65888525
 20
-33.13914181
  0
VERTEX
  8
0
 10
45.74199041
 20
-33.60450461
  0
VERTEX
  8
0
 10
45.84751102
 20
-34.06170224
  0
VERTEX
  8
0
 10
45.97485330
 20
-34.51014093
  0
VERTEX
  8
0
 10
46.12342349
 20
-34.94922692
  0
VERTEX
  8
0
 10
46.29262784
 20
-35.37836647
  0
VERTEX
  8
0
 10
46.48187259
 20
-35.79696579
  0
VERTEX
  8
0
 10
46.69056397
 20
-36.20443114
  0
VERTEX
  8
0
 10
46.91810822
 20
-36.60016875
  0
VERTEX
  8
0
 10
47.16391158
 20
-36.98358486
  0
VERTEX
  8
0
 10
47.42738029
 20
-37.35408571
  0
VERTEX
  8
0
 10
47.70792060
 20
-37.71107754
  0
VERTEX
  8
0
 10
48.00493872
 20
-38.05396658
  0
VERTEX
  8
0
 10
48.31784092
 20
-38.38215908
  0
VERTEX
  8
0
 10
48.64603342
 20
-38.69506128
  0
VERTEX
  8
0
 10
48.98892246
 20
-38.99207940
  0
VERTEX
  8
0
 10
49.34591429
 20
-39.27261971
  0
VERTEX
  8
0
 10
49.71641514
 20
-39.53608842
  0
VERTEX
  8
0
 10
50.09983125
 20
-39.78189178
  0
VERTEX
  8
0
 10
50.49556886
 20
-40.00943603
  0
VERTEX
  8
0
 10
50.90303421
 20
-40.21812741
  0
VERTEX
  8
0
 10
51.32163353
 20
-40.40737216
  0
VERTEX
  8
0
 10
51.75077308
 20
-40.57657651
  0
VERTEX
  8
0
 10
52.18985907
 20
-40.72514670
  0
VERTEX
  8
0
 10
52.63829776
 20
-40.85248898
  0
VERTEX
  8
0
 10
53.09549539
 20
-40.95800959
  0
VERTEX
  8
0
 10
53.56085819
 20
-41.04111475
  0
VERTEX
  8
0
 10
54.03379240
 20
-41.10121072
  0
VERTEX
  8
0
 10
54.51370425
 20
-41.13770372
  0
VERTEX
  8
0
 10
55.00000000
 20
-41.15000000
  0
VERTEX
  8
0
 10
55.48629575
 20
-41.13770372
  0
VERTEX
  8
0
 10
55.96620760
 20
-41.10121072
  0
VERTEX
  8
0
 10
56.43914181
 20
-41.04111475
  0
VERTEX
  8
0
 10
56.90450461
 20
-40.95800959
  0
VERTEX
  8
0
 10
57.36170224
 20
-40.85248898
  0
VERTEX
  8
0
 10
57.81014093
 20
-40.72514670
  0
VERTEX
  8
0
 10
58.24922692
 20
-40.57657651
  0
VERTEX
  8
0
 10
58.67836647
 20
-40.40737216
  0
VERTEX
  8
0
 10
59.09696579
 20
-40.21812741
  0
VERTEX
  8
0
 10
59.50443114
 20
-40.00943603
  0
VERTEX
  8
0
 10
59.90016875
 20
-39.78189178
  0
VERTEX
  8
0
 10
60.28358486
 20
-39.53608842
  0
VERTEX
  8
0
 10
60.65408571
 20
-39.27261971
  0
VERTEX
  8
0
 10
61.01107754
 20
-38.99207940
  0
VERTEX
  8
0
 10
61.35396658
 20
-38.69506128
  0
VERTEX
  8
0
 10
61.68215908
 20
-38.38215908
  0
VERTEX
  8
0
 10
61.99506128
 20
-38.05396658
  0
VERTEX
  8
0
 10
62.29207940
 20
-37.71107754
  0
VERTEX
  8
0
 10
62.57261971
 20
-37.35408571
  0
VERTEX
  8
0
 10
62.83608842
 20
-36.98358486
  0
VERTEX
  8
0
 10
63.08189178
 20
-36.60016875
  0
VERTEX
  8
0
 10
63.30943603
 20
-36.20443114
  0
VERTEX
  8
0
 10
63.51812741
 20
-35.79696579
  0
VERTEX
  8
0
 10
63.70737216
 20
-35.37836647
  0
VERTEX
  8
0
 10
63.87657651
 20
-34.94922692
  0
VERTEX
  8
0
 10
64.02514670
 20
-34.51014093
  0
VERTEX
  8
0
 10
64.15248898
 20
-34.06170224
  0
VERTEX
  8
0
 10
64.25800959
 20
-33.60450461
  0
VERTEX
  8
0
 10
64.34111475
 20
-33.13914181
  0
VERTEX
  8
0
 10
64.40121072
 20
-32.66620760
  0
VERTEX
  8
0
 10
64.43770372
 20
-32.18629575
  0
VERTEX
  8
0
 10
64.45000000
 20
-31.70000000
  0
SEQEND
  0
POLYLINE
  8
Capa por Defecto
 66
   1
 39
0.000000
 70
    1
  0
VERTEX
  8
0
 10
119.45000000
 20
-31.70000000
  0
VERTEX
  8
0
 10
119.43770372
 20
-31.21370425
  0
VERTEX
  8
0
 10
119.40121072
 20
-30.73379240
  0
VERTEX
  8
0
 10
119.34111475
 20
-30.26085819
  0
VERTEX
  8
0
 10
119.25800959
 20
-29.79549539
  0
VERTEX
  8
0
 10
119.15248898
 20
-29.33829776
  0
VERTEX
  8
0
 10
119.02514670
 20
-28.88985907
  0
VERTEX
  8
0
 10
118.87657651
 20
-28.45077308
  0
VERTEX
  8
0
 10
118.70737216
 20
-28.02163353
  0
VERTEX
  8
0
 10
118.51812741
 20
-27.60303421
  0
VERTEX
  8
0
 10
118.30943603
 20
-27.19556886
  0
VERTEX
  8
0
 10
118.08189178
 20
-26.79983125
  0
VERTEX
  8
0
 10
117.83608842
 20
-26.41641514
  0
VERTEX
  8
0
 10
117.57261971
 20
-26.04591429
  0
VERTEX
  8
0
 10
117.29207940
 20
-25.68892246
  0
VERTEX
  8
0
 10
116.99506128
 20
-25.34603342
  0
VERTEX
  8
0
 10
116.68215908
 20
-25.01784092
  0
VERTEX
  8
0
 10
116.35396658
 20
-24.70493872
  0
VERTEX
  8
0
 10
116.01107754
 20
-24.40792060
  0
VERTEX
  8
0
 10
115.65408571
 20
-24.12738029
  0
VERTEX
  8
0
 10
115.28358486
 20
-23.86391158
  0
VERTEX
  8
0
 10
114.90016875
 20
-23.61810822
  0
VERTEX
  8
0
 10
114.50443114
 20
-23.39056397
  0
VERTEX
  8
0
 10
114.09696579
 20
-23.18187259
  0
VERTEX
  8
0
 10
113.67836647
 20
-22.99262784
  0
VERTEX
  8
0
 10
113.24922692
 20
-22.82342349
  0
VERTEX
  8
0
 10
112.81014093
 20
-22.67485330
  0
VERTEX
  8
0
 10
112.36170224
 20
-22.54751102
  0
VERTEX
  8
0
 10
111.90450461
 20
-22.44199041
  0
VERTEX
  8
0
 10
111.43914181
 20
-22.35888525
  0
VERTEX
  8
0
 10
110.96620760
 20
-22.29878928
  0
VERTEX
  8
0
 10
110.48629575
 20
-22.26229628
  0
VERTEX
  8
0
 10
110.00000000
 20
-22.25000000
  0
VERTEX
  8
0
 10
109.51370425
 20
-22.26229628
  0
VERTEX
  8
0
 10
109.03379240
 20
-22.29878928
  0
VERTEX
  8
0
 10
108.56085819
 20
-22.35888525
  0
VERTEX
  8
0
 10
108.09549539
 20
-22.44199041
  0
VERTEX
  8
0
 10
107.63829776
 20
-22.54751102
  0
VERTEX
  8
0
 10
107.18985907
 20
-22.67485330
  0
VERTEX
  8
0
 10
106.75077308
 20
-22.82342349
  0
VERTEX
  8
0
 10
106.32163353
 20
-22.99262784
  0
VERTEX
  8
0
 10
105.90303421
 20
-23.18187259
  0
VERTEX
  8
0
 10
105.49556886
 20
-23.39056397
  0
VERTEX
  8
0
 10
105.09983125
 20
-23.61810822
  0
VERTEX
  8
0
 10
104.71641514
 20
-23.86391158
  0
VERTEX
  8
0
 10
104.34591429
 20
-24.12738029
  0
VERTEX
  8
0
 10
103.98892246
 20
-24.40792060
  0
VERTEX
  8
0
 10
103.64603342
 20
-24.70493872
  0
VERTEX
  8
0
 10
103.31784092
 20
-25.01784092
  0
VERTEX
  8
0
 10
103.00493872
 20
-25.34603342
  0
VERTEX
  8
0
 10
102.70792060
 20
-25.68892246
  0
VERTEX
  8
0
 10
102.42738029
 20
-26.04591429
  0
VERTEX
  8
0
 10
102.16391158
 20
-26.41641514
  0
VERTEX
  8
0
 10
101.91810822
 20
-26.79983125
  0
VERTEX
  8
0
 10
101.69056397
 20
-27.19556886
  0
VERTEX
  8
0
 10
101.48187259
 20
-27.60303421
  0
VERTEX
  8
0
 10
101.29262784
 20
-28.02163353
  0
VERTEX
  8
0
 10
101.12342349
 20
-28.45077308
  0
VERTEX
  8
0
 10
100.97485330
 20
-28.88985907
  0
VERTEX
  8
0
 10
100.84751102
 20
-29.33829776
  0
VERTEX
  8
0
 10
100.74199041
 20
-29.79549539
  0
VERTEX
  8
0
 10
100.65888525
 20
-30.26085819
  0
VERTEX
  8
0
 10
100.59878928
 20
-30.73379240
  0
VERTEX
  8
0
 10
100.56229628
 20
-31.21370425
  0
VERTEX
  8
0
 10
100.55000000
 20
-31.70000000
  0
VERTEX
  8
0
 10
100.56229628
 20
-32.18629575
  0
VERTEX
  8
0
 10
100.59878928
 20
-32.66620760
  0
VERTEX
  8
0
 10
100.65888525
 20
-33.13914181
  0
VERTEX
  8
0
 10
100.74199041
 20
-33.60450461
  0
VERTEX
  8
0
 10
100.84751102
 20
-34.06170224
  0
VERTEX
  8
0
 10
100.97485330
 20
-34.51014093
  0
VERTEX
  8
0
 10
101.12342349
 20
-34.94922692
  0
VERTEX
  8
0
 10
101.29262784
 20
-35.37836647
  0
VERTEX
  8
0
 10
101.48187259
 20
-35.79696579
  0
VERTEX
  8
0
 10
101.69056397
 20
-36.20443114
  0
VERTEX
  8
0
 10
101.91810822
 20
-36.60016875
  0
VERTEX
  8
0
 10
102.16391158
 20
-36.98358486
  0
VERTEX
  8
0
 10
102.42738029
 20
-37.35408571
  0
VERTEX
  8
0
 10
102.70792060
 20
-37.71107754
  0
VERTEX
  8
0
 10
103.00493872
 20
-38.05396658
  0
VERTEX
  8
0
 10
103.31784092
 20
-38.38215908
  0
VERTEX
  8
0
 10
103.64603342
 20
-38.69506128
  0
VERTEX
  8
0
 10
103.98892246
 20
-38.99207940
  0
VERTEX
  8
0
 10
104.34591429
 20
-39.27261971
  0
VERTEX
  8
0
 10
104.71641514
 20
-39.53608842
  0
VERTEX
  8
0
 10
105.09983125
 20
-39.78189178
  0
VERTEX
  8
0
 10
105.49556886
 20
-40.00943603
  0
VERTEX
  8
0
 10
105.90303421
 20
-40.21812741
  0
VERTEX
  8
0
 10
106.32163353
 20
-40.40737216
  0
VERTEX
  8
0
 10
106.75077308
 20
-40.57657651
  0
VERTEX
  8
0
 10
107.18985907
 20
-40.72514670
  0
VERTEX
  8
0
 10
107.63829776
 20
-40.85248898
  0
VERTEX
  8
0
 10
108.09549539
 20
-40.95800959
  0
VERTEX
  8
0
 10
108.56085819
 20
-41.04111475
  0
VERTEX
  8
0
 10
109.03379240
 20
-41.10121072
  0
VERTEX
  8
0
 10
109.51370425
 20
-41.13770372
  0
VERTEX
  8
0
 10
110.00000000
 20
-41.15000000
  0
VERTEX
  8
0
 10
110.48629575
 20
-41.13770372
  0
VERTEX
  8
0
 10
110.96620760
 20
-41.10121072
  0
VERTEX
  8
0
 10
111.43914181
 20
-41.04111475
  0
VERTEX
  8
0
 10
111.90450461
 20
-40.95800959
  0
VERTEX
  8
0
 10
112.36170224
 20
-40.85248898
  0
VERTEX
  8
0
 10
112.81014093
 20
-40.72514670
  0
VERTEX
  8
0
 10
113.24922692
 20
-40.57657651
  0
VERTEX
  8
0
 10
113.67836647
 20
-40.40737216
  0
VERTEX
  8
0
 10
114.09696579
 20
-40.21812741
  0
VERTEX
  8
0
 10
114.50443114
 20
-40.00943603
  0
VERTEX
  8
0
 10
114.90016875
 20
-39.78189178
  0
VERTEX
  8
0
 10
115.28358486
 20
-39.53608842
  0
VERTEX
  8
0
 10
115.65408571
 20
-39.27261971
  0
VERTEX
  8
0
 10
116.01107754
 20
-38.99207940
  0
VERTEX
  8
0
 10
116.35396658
 20
-38.69506128
  0
VERTEX
  8
0
 10
116.68215908
 20
-38.38215908
  0
VERTEX
  8
0
 10
116.99506128
 20
-38.05396658
  0
VERTEX
  8
0
 10
117.29207940
 20
-37.71107754
  0
VERTEX
  8
0
 10
117.57261971
 20
-37.35408571
  0
VERTEX
  8
0
 10
117.83608842
 20
-36.98358486
  0
VERTEX
  8
0
 10
118.08189178
 20
-36.60016875
  0
VERTEX
  8
0
 10
118.30943603
 20
-36.20443114
  0
VERTEX
  8
0
 10
118.51812741
 20
-35.79696579
  0
VERTEX
  8
0
 10
118.70737216
 20
-35.37836647
  0
VERTEX
  8
0
 10
118.87657651
 20
-34.94922692
  0
VERTEX
  8
0
 10
119.02514670
 20
-34.51014093
  0
VERTEX
  8
0
 10
119.15248898
 20
-34.06170224
  0
VERTEX
  8
0
 10
119.25800959
 20
-33.60450461
  0
VERTEX
  8
0
 10
119.34111475
 20
-33.13914181
  0
VERTEX
  8
0
 10
119.40121072
 20
-32.66620760
  0
VERTEX
  8
0
 10
119.43770372
 20
-32.18629575
  0
VERTEX
  8
0
 10
119.45000000
 20
-31.70000000
  0
SEQEND
  0
POLYLINE
  8
Capa por Defecto
 66
   1
 39
0.000000
 70
    1
  0
VERTEX
  8
0
 10
174.45000000
 20
-31.70000000
  0
VERTEX
  8
0
 10
174.43770372
 20
-31.21370425
  0
VERTEX
  8
0
 10
174.40121072
 20
-30.73379240
  0
VERTEX
  8
0
 10
174.34111475
 20
-30.26085819
  0
VERTEX
  8
0
 10
174.25800959
 20
-29.79549539
  0
VERTEX
  8
0
 10
174.15248898
 20
-29.33829776
  0
VERTEX
  8
0
 10
174.02514670
 20
-28.88985907
  0
VERTEX
  8
0
 10
173.87657651
 20
-28.45077308
  0
VERTEX
  8
0
 10
173.70737216
 20
-28.02163353
  0
VERTEX
  8
0
 10
173.51812741
 20
-27.60303421
  0
VERTEX
  8
0
 10
173.30943603
 20
-27.19556886
  0
VERTEX
  8
0
 10
173.08189178
 20
-26.79983125
  0
VERTEX
  8
0
 10
172.83608842
 20
-26.41641514
  0
VERTEX
  8
0
 10
172.57261971
 20
-26.04591429
  0
VERTEX
  8
0
 10
172.29207940
 20
-25.68892246
  0
VERTEX
  8
0
 10
171.99506128
 20
-25.34603342
  0
VERTEX
  8
0
 10
171.68215908
 20
-25.01784092
  0
VERTEX
  8
0
 10
171.35396658
 20
-24.70493872
  0
VERTEX
  8
0
 10
171.01107754
 20
-24.40792060
  0
VERTEX
  8
0
 10
170.65408571
 20
-24.12738029
  0
VERTEX
  8
0
 10
170.28358486
 20
-23.86391158
  0
VERTEX
  8
0
 10
169.90016875
 20
-23.61810822
  0
VERTEX
  8
0
 10
169.50443114
 20
-23.39056397
  0
VERTEX
  8
0
 10
169.09696579
 20
-23.18187259
  0
VERTEX
  8
0
 10
168.67836647
 20
-22.99262784
  0
VERTEX
  8
0
 10
168.24922692
 20
-22.82342349
  0
VERTEX
  8
0
 10
167.81014093
 20
-22.67485330
  0
VERTEX
  8
0
 10
167.36170224
 20
-22.54751102
  0
VERTEX
  8
0
 10
166.90450461
 20
-22.44199041
  0
VERTEX
  8
0
 10
166.43914181
 20
-22.35888525
  0
VERTEX
  8
0
 10
165.96620760
 20
-22.29878928
  0
VERTEX
  8
0
 10
165.48629575
 20
-22.26229628
  0
VERTEX
  8
0
 10
165.00000000
 20
-22.25000000
  0
VERTEX
  8
0
 10
164.51370425
 20
-22.26229628
  0
VERTEX
  8
0
 10
164.03379240
 20
-22.29878928
  0
VERTEX
  8
0
 10
163.56085819
 20
-22.35888525
  0
VERTEX
  8
0
 10
163.09549539
 20
-22.44199041
  0
VERTEX
  8
0
 10
162.63829776
 20
-22.54751102
  0
VERTEX
  8
0
 10
162.18985907
 20
-22.67485330
  0
VERTEX
  8
0
 10
161.75077308
 20
-22.82342349
  0
VERTEX
  8
0
 10
161.32163353
 20
-22.99262784
  0
VERTEX
  8
0
 10
160.90303421
 20
-23.18187259
  0
VERTEX
  8
0
 10
160.49556886
 20
-23.39056397
  0
VERTEX
  8
0
 10
160.09983125
 20
-23.61810822
  0
VERTEX
  8
0
 10
159.71641514
 20
-23.86391158
  0
VERTEX
  8
0
 10
159.34591429
 20
-24.12738029
  0
VERTEX
  8
0
 10
158.98892246
 20
-24.40792060
  0
VERTEX
  8
0
 10
158.64603342
 20
-24.70493872
  0
VERTEX
  8
0
 10
158.31784092
 20
-25.01784092
  0
VERTEX
  8
0
 10
158.00493872
 20
-25.34603342
  0
VERTEX
  8
0
 10
157.70792060
 20
-25.68892246
  0
VERTEX
  8
0
 10
157.42738029
 20
-26.04591429
  0
VERTEX
  8
0
 10
157.16391158
 20
-26.41641514
  0
VERTEX
  8
0
 10
156.91810822
 20
-26.79983125
  0
VERTEX
  8
0
 10
156.69056397
 20
-27.19556886
  0
VERTEX
  8
0
 10
156.48187259
 20
-27.60303421
  0
VERTEX
  8
0
 10
156.29262784
 20
-28.02163353
  0
VERTEX
  8
0
 10
156.12342349
 20
-28.45077308
  0
VERTEX
  8
0
 10
155.97485330
 20
-28.88985907
  0
VERTEX
  8
0
 10
155.84751102
 20
-29.33829776
  0
VERTEX
  8
0
 10
155.74199041
 20
-29.79549539
  0
VERTEX
  8
0
 10
155.65888525
 20
-30.26085819
  0
VERTEX
  8
0
 10
155.59878928
 20
-30.73379240
  0
VERTEX
  8
0
 10
155.56229628
 20
-31.21370425
  0
VERTEX
  8
0
 10
155.55000000
 20
-31.70000000
  0
VERTEX
  8
0
 10
155.56229628
 20
-32.18629575
  0
VERTEX
  8
0
 10
155.59878928
 20
-32.66620760
  0
VERTEX
  8
0
 10
155.65888525
 20
-33.13914181
  0
VERTEX
  8
0
 10
155.74199041
 20
-33.60450461
  0
VERTEX
  8
0
 10
155.84751102
 20
-34.06170224
  0
VERTEX
  8
0
 10
155.97485330
 20
-34.51014093
  0
VERTEX
  8
0
 10
156.12342349
 20
-34.94922692
  0
VERTEX
  8
0
 10
156.29262784
 20
-35.37836647
  0
VERTEX
  8
0
 10
156.48187259
 20
-35.79696579
  0
VERTEX
  8
0
 10
156.69056397
 20
-36.20443114
  0
VERTEX
  8
0
 10
156.91810822
 20
-36.60016875
  0
VERTEX
  8
0
 10
157.16391158
 20
-36.98358486
  0
VERTEX
  8
0
 10
157.42738029
 20
-37.35408571
  0
VERTEX
  8
0
 10
157.70792060
 20
-37.71107754
  0
VERTEX
  8
0
 10
158.00493872
 20
-38.05396658
  0
VERTEX
  8
0
 10
158.31784092
 20
-38.38215908
  0
VERTEX
  8
0
 10
158.64603342
 20
-38.69506128
  0
VERTEX
  8
0
 10
158.98892246
 20
-38.99207940
  0
VERTEX
  8
0
 10
159.34591429
 20
-39.27261971
  0
VERTEX
  8
0
 10
159.71641514
 20
-39.53608842
  0
VERTEX
  8
0
 10
160.09983125
 20
-39.78189178
  0
VERTEX
  8
0
 10
160.49556886
 20
-40.00943603
  0
VERTEX
  8
0
 10
160.90303421
 20
-40.21812741
  0
VERTEX
  8
0
 10
161.32163353
 20
-40.40737216
  0
VERTEX
  8
0
 10
161.75077308
 20
-40.57657651
  0
VERTEX
  8
0
 10
162.18985907
 20
-40.72514670
  0
VERTEX
  8
0
 10
162.63829776
 20
-40.85248898
  0
VERTEX
  8
0
 10
163.09549539
 20
-40.95800959
  0
VERTEX
  8
0
 10
163.56085819
 20
-41.04111475
  0
VERTEX
  8
0
 10
164.03379240
 20
-41.10121072
  0
VERTEX
  8
0
 10
164.51370425
 20
-41.13770372
  0
VERTEX
  8
0
 10
165.00000000
 20
-41.15000000
  0
VERTEX
  8
0
 10
165.48629575
 20
-41.13770372
  0
VERTEX
  8
0
 10
165.96620760
 20
-41.10121072
  0
VERTEX
  8
0
 10
166.43914181
 20
-41.04111475
  0
VERTEX
  8
0
 10
166.90450461
 20
-40.95800959
  0
VERTEX
  8
0
 10
167.36170224
 20
-40.85248898
  0
VERTEX
  8
0
 10
167.81014093
 20
-40.72514670
  0
VERTEX
  8
0
 10
168.24922692
 20
-40.57657651
  0
VERTEX
  8
0
 10
168.67836647
 20
-40.40737216
  0
VERTEX
  8
0
 10
169.09696579
 20
-40.21812741
  0
VERTEX
  8
0
 10
169.50443114
 20
-40.00943603
  0
VERTEX
  8
0
 10
169.90016875
 20
-39.78189178
  0
VERTEX
  8
0
 10
170.28358486
 20
-39.53608842
  0
VERTEX
  8
0
 10
170.65408571
 20
-39.27261971
  0
VERTEX
  8
0
 10
171.01107754
 20
-38.99207940
  0
VERTEX
  8
0
 10
171.35396658
 20
-38.69506128
  0
VERTEX
  8
0
 10
171.68215908
 20
-38.38215908
  0
VERTEX
  8
0
 10
171.99506128
 20
-38.05396658
  0
VERTEX
  8
0
 10
172.29207940
 20
-37.71107754
  0
VERTEX
  8
0
 10
172.57261971
 20
-37.35408571
  0
VERTEX
  8
0
 10
172.83608842
 20
-36.98358486
  0
VERTEX
  8
0
 10
173.08189178
 20
-36.60016875
  0
VERTEX
  8
0
 10
173.30943603
 20
-36.20443114
  0
VERTEX
  8
0
 10
173.51812741
 20
-35.79696579
  0
VERTEX
  8
0
 10
173.70737216
 20
-35.37836647
  0
VERTEX
  8
0
 10
173.87657651
 20
-34.94922692
  0
VERTEX
  8
0
 10
174.02514670
 20
-34.51014093
  0
VERTEX
  8
0
 10
174.15248898
 20
-34.06170224
  0
VERTEX
  8
0
 10
174.25800959
 20
-33.60450461
  0
VERTEX
  8
0
 10
174.34111475
 20
-33.13914181
  0
VERTEX
  8
0
 10
174.40121072
 20
-32.66620760
  0
VERTEX
  8
0
 10
174.43770372
 20
-32.18629575
  0
VERTEX
  8
0
 10
174.45000000
 20
-31.70000000
  0
SEQEND
  0
POLYLINE
  8
Capa por Defecto
 66
   1
 39
0.000000
 70
    1
  0
VERTEX
  8
0
 10
174.45000000
 20
31.70000000
  0
VERTEX
  8
0
 10
174.43770372
 20
32.18629575
  0
VERTEX
  8
0
 10
174.40121072
 20
32.66620760
  0
VERTEX
  8
0
 10
174.34111475
 20
33.13914181
  0
VERTEX
  8
0
 10
174.25800959
 20
33.60450461
  0
VERTEX
  8
0
 10
174.15248898
 20
34.06170224
  0
VERTEX
  8
0
 10
174.02514670
 20
34.51014093
  0
VERTEX
  8
0
 10
173.87657651
 20
34.94922692
  0
VERTEX
  8
0
 10
173.70737216
 20
35.37836647
  0
VERTEX
  8
0
 10
173.51812741
 20
35.79696579
  0
VERTEX
  8
0
 10
173.30943603
 20
36.20443114
  0
VERTEX
  8
0
 10
173.08189178
 20
36.60016875
  0
VERTEX
  8
0
 10
172.83608842
 20
36.98358486
  0
VERTEX
  8
0
 10
172.57261971
 20
37.35408571
  0
VERTEX
  8
0
 10
172.29207940
 20
37.71107754
  0
VERTEX
  8
0
 10
171.99506128
 20
38.05396658
  0
VERTEX
  8
0
 10
171.68215908
 20
38.38215908
  0
VERTEX
  8
0
 10
171.35396658
 20
38.69506128
  0
VERTEX
  8
0
 10
171.01107754
 20
38.99207940
  0
VERTEX
  8
0
 10
170.65408571
 20
39.27261971
  0
VERTEX
  8
0
 10
170.28358486
 20
39.53608842
  0
VERTEX
  8
0
 10
169.90016875
 20
39.78189178
  0
VERTEX
  8
0
 10
169.50443114
 20
40.00943603
  0
VERTEX
  8
0
 10
169.09696579
 20
40.21812741
  0
VERTEX
  8
0
 10
168.67836647
 20
40.40737216
  0
VERTEX
  8
0
 10
168.24922692
 20
40.57657651
  0
VERTEX
  8
0
 10
167.81014093
 20
40.72514670
  0
VERTEX
  8
0
 10
167.36170224
 20
40.85248898
  0
VERTEX
  8
0
 10
166.90450461
 20
40.95800959
  0
VERTEX
  8
0
 10
166.43914181
 20
41.04111475
  0
VERTEX
  8
0
 10
165.96620760
 20
41.10121072
  0
VERTEX
  8
0
 10
165.48629575
 20
41.13770372
  0
VERTEX
  8
0
 10
165.00000000
 20
41.15000000
  0
VERTEX
  8
0
 10
164.51370425
 20
41.13770372
  0
VERTEX
  8
0
 10
164.03379240
 20
41.10121072
  0
VERTEX
  8
0
 10
163.56085819
 20
41.04111475
  0
VERTEX
  8
0
 10
163.09549539
 20
40.95800959
  0
VERTEX
  8
0
 10
162.63829776
 20
40.85248898
  0
VERTEX
  8
0
 10
162.18985907
 20
40.72514670
  0
VERTEX
  8
0
 10
161.75077308
 20
40.57657651
  0
VERTEX
  8
0
 10
161.32163353
 20
40.40737216
  0
VERTEX
  8
0
 10
160.90303421
 20
40.21812741
  0
VERTEX
  8
0
 10
160.49556886
 20
40.00943603
  0
VERTEX
  8
0
 10
160.09983125
 20
39.78189178
  0
VERTEX
  8
0
 10
159.71641514
 20
39.53608842
  0
VERTEX
  8
0
 10
159.34591429
 20
39.27261971
  0
VERTEX
  8
0
 10
158.98892246
 20
38.99207940
  0
VERTEX
  8
0
 10
158.64603342
 20
38.69506128
  0
VERTEX
  8
0
 10
158.31784092
 20
38.38215908
  0
VERTEX
  8
0
 10
158.00493872
 20
38.05396658
  0
VERTEX
  8
0
 10
157.70792060
 20
37.71107754
  0
VERTEX
  8
0
 10
157.42738029
 20
37.35408571
  0
VERTEX
  8
0
 10
157.16391158
 20
36.98358486
  0
VERTEX
  8
0
 10
156.91810822
 20
36.60016875
  0
VERTEX
  8
0
 10
156.69056397
 20
36.20443114
  0
VERTEX
  8
0
 10
156.48187259
 20
35.79696579
  0
VERTEX
  8
0
 10
156.29262784
 20
35.37836647
  0
VERTEX
  8
0
 10
156.12342349
 20
34.94922692
  0
VERTEX
  8
0
 10
155.97485330
 20
34.51014093
  0
VERTEX
  8
0
 10
155.84751102
 20
34.06170224
  0
VERTEX
  8
0
 10
155.74199041
 20
33.60450461
  0
VERTEX
  8
0
 10
155.65888525
 20
33.13914181
  0
VERTEX
  8
0
 10
155.59878928
 20
32.66620760
  0
VERTEX
  8
0
 10
155.56229628
 20
32.18629575
  0
VERTEX
  8
0
 10
155.55000000
 20
31.70000000
  0
VERTEX
  8
0
 10
155.56229628
 20
31.21370425
  0
VERTEX
  8
0
 10
155.59878928
 20
30.73379240
  0
VERTEX
  8
0
 10
155.65888525
 20
30.26085819
  0
VERTEX
  8
0
 10
155.74199041
 20
29.79549539
  0
VERTEX
  8
0
 10
155.84751102
 20
29.33829776
  0
VERTEX
  8
0
 10
155.97485330
 20
28.88985907
  0
VERTEX
  8
0
 10
156.12342349
 20
28.45077308
  0
VERTEX
  8
0
 10
156.29262784
 20
28.02163353
  0
VERTEX
  8
0
 10
156.48187259
 20
27.60303421
  0
VERTEX
  8
0
 10
156.69056397
 20
27.19556886
  0
VERTEX
  8
0
 10
156.91810822
 20
26.79983125
  0
VERTEX
  8
0
 10
157.16391158
 20
26.41641514
  0
VERTEX
  8
0
 10
157.42738029
 20
26.04591429
  0
VERTEX
  8
0
 10
157.70792060
 20
25.68892246
  0
VERTEX
  8
0
 10
158.00493872
 20
25.34603342
  0
VERTEX
  8
0
 10
158.31784092
 20
25.01784092
  0
VERTEX
  8
0
 10
158.64603342
 20
24.70493872
  0
VERTEX
  8
0
 10
158.98892246
 20
24.40792060
  0
VERTEX
  8
0
 10
159.34591429
 20
24.12738029
  0
VERTEX
  8
0
 10
159.71641514
 20
23.86391158
  0
VERTEX
  8
0
 10
160.09983125
 20
23.61810822
  0
VERTEX
  8
0
 10
160.49556886
 20
23.39056397
  0
VERTEX
  8
0
 10
160.90303421
 20
23.18187259
  0
VERTEX
  8
0
 10
161.32163353
 20
22.99262784
  0
VERTEX
  8
0
 10
161.75077308
 20
22.82342349
  0
VERTEX
  8
0
 10
162.18985907
 20
22.67485330
  0
VERTEX
  8
0
 10
162.63829776
 20
22.54751102
  0
VERTEX
  8
0
 10
163.09549539
 20
22.44199041
  0
VERTEX
  8
0
 10
163.56085819
 20
22.35888525
  0
VERTEX
  8
0
 10
164.03379240
 20
22.29878928
  0
VERTEX
  8
0
 10
164.51370425
 20
22.26229628
  0
VERTEX
  8
0
 10
165.00000000
 20
22.25000000
  0
VERTEX
  8
0
 10
165.48629575
 20
22.26229628
  0
VERTEX
  8
0
 10
165.96620760
 20
22.29878928
  0
VERTEX
  8
0
 10
166.43914181
 20
22.35888525
  0
VERTEX
  8
0
 10
166.90450461
 20
22.44199041
  0
VERTEX
  8
0
 10
167.36170224
 20
22.54751102
  0
VERTEX
  8
0
 10
167.81014093
 20
22.67485330
  0
VERTEX
  8
0
 10
168.24922692
 20
22.82342349
  0
VERTEX
  8
0
 10
168.67836647
 20
22.99262784
  0
VERTEX
  8
0
 10
169.09696579
 20
23.18187259
  0
VERTEX
  8
0
 10
169.50443114
 20
23.39056397
  0
VERTEX
  8
0
 10
169.90016875
 20
23.61810822
  0
VERTEX
  8
0
 10
170.28358486
 20
23.86391158
  0
VERTEX
  8
0
 10
170.65408571
 20
24.12738029
  0
VERTEX
  8
0
 10
171.01107754
 20
24.40792060
  0
VERTEX
  8
0
 10
171.35396658
 20
24.70493872
  0
VERTEX
  8
0
 10
171.68215908
 20
25.01784092
  0
VERTEX
  8
0
 10
171.99506128
 20
25.34603342
  0
VERTEX
  8
0
 10
172.29207940
 20
25.68892246
  0
VERTEX
  8
0
 10
172.57261971
 20
26.04591429
  0
VERTEX
  8
0
 10
172.83608842
 20
26.41641514
  0
VERTEX
  8
0
 10
173.08189178
 20
26.79983125
  0
VERTEX
  8
0
 10
173.30943603
 20
27.19556886
  0
VERTEX
  8
0
 10
173.51812741
 20
27.60303421
  0
VERTEX
  8
0
 10
173.70737216
 20
28.02163353
  0
VERTEX
  8
0
 10
173.87657651
 20
28.45077308
  0
VERTEX
  8
0
 10
174.02514670
 20
28.88985907
  0
VERTEX
  8
0
 10
174.15248898
 20
29.33829776
  0
VERTEX
  8
0
 10
174.25800959
 20
29.79549539
  0
VERTEX
  8
0
 10
174.34111475
 20
30.26085819
  0
VERTEX
  8
0
 10
174.40121072
 20
30.73379240
  0
VERTEX
  8
0
 10
174.43770372
 20
31.21370425
  0
VERTEX
  8
0
 10
174.45000000
 20
31.70000000
  0
SEQEND
  0
POLYLINE
  8
Capa por Defecto
 66
   1
 39
0.000000
 70
    1
  0
VERTEX
  8
0
 10
119.45000000
 20
31.70000000
  0
VERTEX
  8
0
 10
119.43770372
 20
32.18629575
  0
VERTEX
  8
0
 10
119.40121072
 20
32.66620760
  0
VERTEX
  8
0
 10
119.34111475
 20
33.13914181
  0
VERTEX
  8
0
 10
119.25800959
 20
33.60450461
  0
VERTEX
  8
0
 10
119.15248898
 20
34.06170224
  0
VERTEX
  8
0
 10
119.02514670
 20
34.51014093
  0
VERTEX
  8
0
 10
118.87657651
 20
34.94922692
  0
VERTEX
  8
0
 10
118.70737216
 20
35.37836647
  0
VERTEX
  8
0
 10
118.51812741
 20
35.79696579
  0
VERTEX
  8
0
 10
118.30943603
 20
36.20443114
  0
VERTEX
  8
0
 10
118.08189178
 20
36.60016875
  0
VERTEX
  8
0
 10
117.83608842
 20
36.98358486
  0
VERTEX
  8
0
 10
117.57261971
 20
37.35408571
  0
VERTEX
  8
0
 10
117.29207940
 20
37.71107754
  0
VERTEX
  8
0
 10
116.99506128
 20
38.05396658
  0
VERTEX
  8
0
 10
116.68215908
 20
38.38215908
  0
VERTEX
  8
0
 10
116.35396658
 20
38.69506128
  0
VERTEX
  8
0
 10
116.01107754
 20
38.99207940
  0
VERTEX
  8
0
 10
115.65408571
 20
39.27261971
  0
VERTEX
  8
0
 10
115.28358486
 20
39.53608842
  0
VERTEX
  8
0
 10
114.90016875
 20
39.78189178
  0
VERTEX
  8
0
 10
114.50443114
 20
40.00943603
  0
VERTEX
  8
0
 10
114.09696579
 20
40.21812741
  0
VERTEX
  8
0
 10
113.67836647
 20
40.40737216
  0
VERTEX
  8
0
 10
113.24922692
 20
40.57657651
  0
VERTEX
  8
0
 10
112.81014093
 20
40.72514670
  0
VERTEX
  8
0
 10
112.36170224
 20
40.85248898
  0
VERTEX
  8
0
 10
111.90450461
 20
40.95800959
  0
VERTEX
  8
0
 10
111.43914181
 20
41.04111475
  0
VERTEX
  8
0
 10
110.96620760
 20
41.10121072
  0
VERTEX
  8
0
 10
110.48629575
 20
41.13770372
  0
VERTEX
  8
0
 10
110.00000000
 20
41.15000000
  0
VERTEX
  8
0
 10
109.51370425
 20
41.13770372
  0
VERTEX
  8
0
 10
109.03379240
 20
41.10121072
  0
VERTEX
  8
0
 10
108.56085819
 20
41.04111475
  0
VERTEX
  8
0
 10
108.09549539
 20
40.95800959
  0
VERTEX
  8
0
 10
107.63829776
 20
40.85248898
  0
VERTEX
  8
0
 10
107.18985907
 20
40.72514670
  0
VERTEX
  8
0
 10
106.75077308
 20
40.57657651
  0
VERTEX
  8
0
 10
106.32163353
 20
40.40737216
  0
VERTEX
  8
0
 10
105.90303421
 20
40.21812741
  0
VERTEX
  8
0
 10
105.49556886
 20
40.00943603
  0
VERTEX
  8
0
 10
105.09983125
 20
39.78189178
  0
VERTEX
  8
0
 10
104.71641514
 20
39.53608842
  0
VERTEX
  8
0
 10
104.34591429
 20
39.27261971
  0
VERTEX
  8
0
 10
103.98892246
 20
38.99207940
  0
VERTEX
  8
0
 10
103.64603342
 20
38.69506128
  0
VERTEX
  8
0
 10
103.31784092
 20
38.38215908
  0
VERTEX
  8
0
 10
103.00493872
 20
38.05396658
  0
VERTEX
  8
0
 10
102.70792060
 20
37.71107754
  0
VERTEX
  8
0
 10
102.42738029
 20
37.35408571
  0
VERTEX
  8
0
 10
102.16391158
 20
36.98358486
  0
VERTEX
  8
0
 10
101.91810822
 20
36.60016875
  0
VERTEX
  8
0
 10
101.69056397
 20
36.20443114
  0
VERTEX
  8
0
 10
101.48187259
 20
35.79696579
  0
VERTEX
  8
0
 10
101.29262784
 20
35.37836647
  0
VERTEX
  8
0
 10
101.12342349
 20
34.94922692
  0
VERTEX
  8
0
 10
100.97485330
 20
34.51014093
  0
VERTEX
  8
0
 10
100.84751102
 20
34.06170224
  0
VERTEX
  8
0
 10
100.74199041
 20
33.60450461
  0
VERTEX
  8
0
 10
100.65888525
 20
33.13914181
  0
VERTEX
  8
0
 10
100.59878928
 20
32.66620760
  0
VERTEX
  8
0
 10
100.56229628
 20
32.18629575
  0
VERTEX
  8
0
 10
100.55000000
 20
31.70000000
  0
VERTEX
  8
0
 10
100.56229628
 20
31.21370425
  0
VERTEX
  8
0
 10
100.59878928
 20
30.73379240
  0
VERTEX
  8
0
 10
100.65888525
 20
30.26085819
  0
VERTEX
  8
0
 10
100.74199041
 20
29.79549539
  0
VERTEX
  8
0
 10
100.84751102
 20
29.33829776
  0
VERTEX
  8
0
 10
100.97485330
 20
28.88985907
  0
VERTEX
  8
0
 10
101.12342349
 20
28.45077308
  0
VERTEX
  8
0
 10
101.29262784
 20
28.02163353
  0
VERTEX
  8
0
 10
101.48187259
 20
27.60303421
  0
VERTEX
  8
0
 10
101.69056397
 20
27.19556886
  0
VERTEX
  8
0
 10
101.91810822
 20
26.79983125
  0
VERTEX
  8
0
 10
102.16391158
 20
26.41641514
  0
VERTEX
  8
0
 10
102.42738029
 20
26.04591429
  0
VERTEX
  8
0
 10
102.70792060
 20
25.68892246
  0
VERTEX
  8
0
 10
103.00493872
 20
25.34603342
  0
VERTEX
  8
0
 10
103.31784092
 20
25.01784092
  0
VERTEX
  8
0
 10
103.64603342
 20
24.70493872
  0
VERTEX
  8
0
 10
103.98892246
 20
24.40792060
  0
VERTEX
  8
0
 10
104.34591429
 20
24.12738029
  0
VERTEX
  8
0
 10
104.71641514
 20
23.86391158
  0
VERTEX
  8
0
 10
105.09983125
 20
23.61810822
  0
VERTEX
  8
0
 10
105.49556886
 20
23.39056397
  0
VERTEX
  8
0
 10
105.90303421
 20
23.18187259
  0
VERTEX
  8
0
 10
106.32163353
 20
22.99262784
  0
VERTEX
  8
0
 10
106.75077308
 20
22.82342349
  0
VERTEX
  8
0
 10
107.18985907
 20
22.67485330
  0
VERTEX
  8
0
 10
107.63829776
 20
22.54751102
  0
VERTEX
  8
0
 10
108.09549539
 20
22.44199041
  0
VERTEX
  8
0
 10
108.56085819
 20
22.35888525
  0
VERTEX
  8
0
 10
109.03379240
 20
22.29878928
  0
VERTEX
  8
0
 10
109.51370425
 20
22.26229628
  0
VERTEX
  8
0
 10
110.00000000
 20
22.25000000
  0
VERTEX
  8
0
 10
110.48629575
 20
22.26229628
  0
VERTEX
  8
0
 10
110.96620760
 20
22.29878928
  0
VERTEX
  8
0
 10
111.43914181
 20
22.35888525
  0
VERTEX
  8
0
 10
111.90450461
 20
22.44199041
  0
VERTEX
  8
0
 10
112.36170224
 20
22.54751102
  0
VERTEX
  8
0
 10
112.81014093
 20
22.67485330
  0
VERTEX
  8
0
 10
113.24922692
 20
22.82342349
  0
VERTEX
  8
0
 10
113.67836647
 20
22.99262784
  0
VERTEX
  8
0
 10
114.09696579
 20
23.18187259
  0
VERTEX
  8
0
 10
114.50443114
 20
23.39056397
  0
VERTEX
  8
0
 10
114.90016875
 20
23.61810822
  0
VERTEX
  8
0
 10
115.28358486
 20
23.86391158
  0
VERTEX
  8
0
 10
115.65408571
 20
24.12738029
  0
VERTEX
  8
0
 10
116.01107754
 20
24.40792060
  0
VERTEX
  8
0
 10
116.35396658
 20
24.70493872
  0
VERTEX
  8
0
 10
116.68215908
 20
25.01784092
  0
VERTEX
  8
0
 10
116.99506128
 20
25.34603342
  0
VERTEX
  8
0
 10
117.29207940
 20
25.68892246
  0
VERTEX
  8
0
 10
117.57261971
 20
26.04591429
  0
VERTEX
  8
0
 10
117.83608842
 20
26.41641514
  0
VERTEX
  8
0
 10
118.08189178
 20
26.79983125
  0
VERTEX
  8
0
 10
118.30943603
 20
27.19556886
  0
VERTEX
  8
0
 10
118.51812741
 20
27.60303421
  0
VERTEX
  8
0
 10
118.70737216
 20
28.02163353
  0
VERTEX
  8
0
 10
118.87657651
 20
28.45077308
  0
VERTEX
  8
0
 10
119.02514670
 20
28.88985907
  0
VERTEX
  8
0
 10
119.15248898
 20
29.33829776
  0
VERTEX
  8
0
 10
119.25800959
 20
29.79549539
  0
VERTEX
  8
0
 10
119.34111475
 20
30.26085819
  0
VERTEX
  8
0
 10
119.40121072
 20
30.73379240
  0
VERTEX
  8
0
 10
119.43770372
 20
31.21370425
  0
VERTEX
  8
0
 10
119.45000000
 20
31.70000000
  0
SEQEND
  0
POLYLINE
  8
Capa por Defecto
 66
   1
 39
0.000000
 70
    1
  0
VERTEX
  8
0
 10
-100.55000000
 20
-31.70000000
  0
VERTEX
  8
0
 10
-100.56229628
 20
-31.21370425
  0
VERTEX
  8
0
 10
-100.59878928
 20
-30.73379240
  0
VERTEX
  8
0
 10
-100.65888525
 20
-30.26085819
  0
VERTEX
  8
0
 10
-100.74199041
 20
-29.79549539
  0
VERTEX
  8
0
 10
-100.84751102
 20
-29.33829776
  0
VERTEX
  8
0
 10
-100.97485330
 20
-28.88985907
  0
VERTEX
  8
0
 10
-101.12342349
 20
-28.45077308
  0
VERTEX
  8
0
 10
-101.29262784
 20
-28.02163353
  0
VERTEX
  8
0
 10
-101.48187259
 20
-27.60303421
  0
VERTEX
  8
0
 10
-101.69056397
 20
-27.19556886
  0
VERTEX
  8
0
 10
-101.91810822
 20
-26.79983125
  0
VERTEX
  8
0
 10
-102.16391158
 20
-26.41641514
  0
VERTEX
  8
0
 10
-102.42738029
 20
-26.04591429
  0
VERTEX
  8
0
 10
-102.70792060
 20
-25.68892246
  0
VERTEX
  8
0
 10
-103.00493872
 20
-25.34603342
  0
VERTEX
  8
0
 10
-103.31784092
 20
-25.01784092
  0
VERTEX
  8
0
 10
-103.64603342
 20
-24.70493872
  0
VERTEX
  8
0
 10
-103.98892246
 20
-24.40792060
  0
VERTEX
  8
0
 10
-104.34591429
 20
-24.12738029
  0
VERTEX
  8
0
 10
-104.71641514
 20
-23.86391158
  0
VERTEX
  8
0
 10
-105.09983125
 20
-23.61810822
  0
VERTEX
  8
0
 10
-105.49556886
 20
-23.39056397
  0
VERTEX
  8
0
 10
-105.90303421
 20
-23.18187259
  0
VERTEX
  8
0
 10
-106.32163353
 20
-22.99262784
  0
VERTEX
  8
0
 10
-106.75077308
 20
-22.82342349
  0
VERTEX
  8
0
 10
-107.18985907
 20
-22.67485330
  0
VERTEX
  8
0
 10
-107.63829776
 20
-22.54751102
  0
VERTEX
  8
0
 10
-108.09549539
 20
-22.44199041
  0
VERTEX
  8
0
 10
-108.56085819
 20
-22.35888525
  0
VERTEX
  8
0
 10
-109.03379240
 20
-22.29878928
  0
VERTEX
  8
0
 10
-109.51370425
 20
-22.26229628
  0
VERTEX
  8
0
 10
-110.00000000
 20
-22.25000000
  0
VERTEX
  8
0
 10
-110.48629575
 20
-22.26229628
  0
VERTEX
  8
0
 10
-110.96620760
 20
-22.29878928
  0
VERTEX
  8
0
 10
-111.43914181
 20
-22.35888525
  0
VERTEX
  8
0
 10
-111.90450461
 20
-22.44199041
  0
VERTEX
  8
0
 10
-112.36170224
 20
-22.54751102
  0
VERTEX
  8
0
 10
-112.81014093
 20
-22.67485330
  0
VERTEX
  8
0
 10
-113.24922692
 20
-22.82342349
  0
VERTEX
  8
0
 10
-113.67836647
 20
-22.99262784
  0
VERTEX
  8
0
 10
-114.09696579
 20
-23.18187259
  0
VERTEX
  8
0
 10
-114.50443114
 20
-23.39056397
  0
VERTEX
  8
0
 10
-114.90016875
 20
-23.61810822
  0
VERTEX
  8
0
 10
-115.28358486
 20
-23.86391158
  0
VERTEX
  8
0
 10
-115.65408571
 20
-24.12738029
  0
VERTEX
  8
0
 10
-116.01107754
 20
-24.40792060
  0
VERTEX
  8
0
 10
-116.35396658
 20
-24.70493872
  0
VERTEX
  8
0
 10
-116.68215908
 20
-25.01784092
  0
VERTEX
  8
0
 10
-116.99506128
 20
-25.34603342
  0
VERTEX
  8
0
 10
-117.29207940
 20
-25.68892246
  0
VERTEX
  8
0
 10
-117.57261971
 20
-26.04591429
  0
VERTEX
  8
0
 10
-117.83608842
 20
-26.41641514
  0
VERTEX
  8
0
 10
-118.08189178
 20
-26.79983125
  0
VERTEX
  8
0
 10
-118.30943603
 20
-27.19556886
  0
VERTEX
  8
0
 10
-118.51812741
 20
-27.60303421
  0
VERTEX
  8
0
 10
-118.70737216
 20
-28.02163353
  0
VERTEX
  8
0
 10
-118.87657651
 20
-28.45077308
  0
VERTEX
  8
0
 10
-119.02514670
 20
-28.88985907
  0
VERTEX
  8
0
 10
-119.15248898
 20
-29.33829776
  0
VERTEX
  8
0
 10
-119.25800959
 20
-29.79549539
  0
VERTEX
  8
0
 10
-119.34111475
 20
-30.26085819
  0
VERTEX
  8
0
 10
-119.40121072
 20
-30.73379240
  0
VERTEX
  8
0
 10
-119.43770372
 20
-31.21370425
  0
VERTEX
  8
0
 10
-119.45000000
 20
-31.70000000
  0
VERTEX
  8
0
 10
-119.43770372
 20
-32.18629575
  0
VERTEX
  8
0
 10
-119.40121072
 20
-32.66620760
  0
VERTEX
  8
0
 10
-119.34111475
 20
-33.13914181
  0
VERTEX
  8
0
 10
-119.25800959
 20
-33.60450461
  0
VERTEX
  8
0
 10
-119.15248898
 20
-34.06170224
  0
VERTEX
  8
0
 10
-119.02514670
 20
-34.51014093
  0
VERTEX
  8
0
 10
-118.87657651
 20
-34.94922692
  0
VERTEX
  8
0
 10
-118.70737216
 20
-35.37836647
  0
VERTEX
  8
0
 10
-118.51812741
 20
-35.79696579
  0
VERTEX
  8
0
 10
-118.30943603
 20
-36.20443114
  0
VERTEX
  8
0
 10
-118.08189178
 20
-36.60016875
  0
VERTEX
  8
0
 10
-117.83608842
 20
-36.98358486
  0
VERTEX
  8
0
 10
-117.57261971
 20
-37.35408571
  0
VERTEX
  8
0
 10
-117.29207940
 20
-37.71107754
  0
VERTEX
  8
0
 10
-116.99506128
 20
-38.05396658
  0
VERTEX
  8
0
 10
-116.68215908
 20
-38.38215908
  0
VERTEX
  8
0
 10
-116.35396658
 20
-38.69506128
  0
VERTEX
  8
0
 10
-116.01107754
 20
-38.99207940
  0
VERTEX
  8
0
 10
-115.65408571
 20
-39.27261971
  0
VERTEX
  8
0
 10
-115.28358486
 20
-39.53608842
  0
VERTEX
  8
0
 10
-114.90016875
 20
-39.78189178
  0
VERTEX
  8
0
 10
-114.50443114
 20
-40.00943603
  0
VERTEX
  8
0
 10
-114.09696579
 20
-40.21812741
  0
VERTEX
  8
0
 10
-113.67836647
 20
-40.40737216
  0
VERTEX
  8
0
 10
-113.24922692
 20
-40.57657651
  0
VERTEX
  8
0
 10
-112.81014093
 20
-40.72514670
  0
VERTEX
  8
0
 10
-112.36170224
 20
-40.85248898
  0
VERTEX
  8
0
 10
-111.90450461
 20
-40.95800959
  0
VERTEX
  8
0
 10
-111.43914181
 20
-41.04111475
  0
VERTEX
  8
0
 10
-110.96620760
 20
-41.10121072
  0
VERTEX
  8
0
 10
-110.48629575
 20
-41.13770372
  0
VERTEX
  8
0
 10
-110.00000000
 20
-41.15000000
  0
VERTEX
  8
0
 10
-109.51370425
 20
-41.13770372
  0
VERTEX
  8
0
 10
-109.03379240
 20
-41.10121072
  0
VERTEX
  8
0
 10
-108.56085819
 20
-41.04111475
  0
VERTEX
  8
0
 10
-108.09549539
 20
-40.95800959
  0
VERTEX
  8
0
 10
-107.63829776
 20
-40.85248898
  0
VERTEX
  8
0
 10
-107.18985907
 20
-40.72514670
  0
VERTEX
  8
0
 10
-106.75077308
 20
-40.57657651
  0
VERTEX
  8
0
 10
-106.32163353
 20
-40.40737216
  0
VERTEX
  8
0
 10
-105.90303421
 20
-40.21812741
  0
VERTEX
  8
0
 10
-105.49556886
 20
-40.00943603
  0
VERTEX
  8
0
 10
-105.09983125
 20
-39.78189178
  0
VERTEX
  8
0
 10
-104.71641514
 20
-39.53608842
  0
VERTEX
  8
0
 10
-104.34591429
 20
-39.27261971
  0
VERTEX
  8
0
 10
-103.98892246
 20
-38.99207940
  0
VERTEX
  8
0
 10
-103.64603342
 20
-38.69506128
  0
VERTEX
  8
0
 10
-103.31784092
 20
-38.38215908
  0
VERTEX
  8
0
 10
-103.00493872
 20
-38.05396658
  0
VERTEX
  8
0
 10
-102.70792060
 20
-37.71107754
  0
VERTEX
  8
0
 10
-102.42738029
 20
-37.35408571
  0
VERTEX
  8
0
 10
-102.16391158
 20
-36.98358486
  0
VERTEX
  8
0
 10
-101.91810822
 20
-36.60016875
  0
VERTEX
  8
0
 10
-101.69056397
 20
-36.20443114
  0
VERTEX
  8
0
 10
-101.48187259
 20
-35.79696579
  0
VERTEX
  8
0
 10
-101.29262784
 20
-35.37836647
  0
VERTEX
  8
0
 10
-101.12342349
 20
-34.94922692
  0
VERTEX
  8
0
 10
-100.97485330
 20
-34.51014093
  0
VERTEX
  8
0
 10
-100.84751102
 20
-34.06170224
  0
VERTEX
  8
0
 10
-100.74199041
 20
-33.60450461
  0
VERTEX
  8
0
 10
-100.65888525
 20
-33.13914181
  0
VERTEX
  8
0
 10
-100.59878928
 20
-32.66620760
  0
VERTEX
  8
0
 10
-100.56229628
 20
-32.18629575
  0
VERTEX
  8
0
 10
-100.55000000
 20
-31.70000000
  0
SEQEND
  0
POLYLINE
  8
Capa por Defecto
 66
   1
 39
0.000000
 70
    1
  0
VERTEX
  8
0
 10
9.45000000
 20
31.70000000
  0
VERTEX
  8
0
 10
9.43770372
 20
32.18629575
  0
VERTEX
  8
0
 10
9.40121072
 20
32.66620760
  0
VERTEX
  8
0
 10
9.34111475
 20
33.13914181
  0
VERTEX
  8
0
 10
9.25800959
 20
33.60450461
  0
VERTEX
  8
0
 10
9.15248898
 20
34.06170224
  0
VERTEX
  8
0
 10
9.02514670
 20
34.51014093
  0
VERTEX
  8
0
 10
8.87657651
 20
34.94922692
  0
VERTEX
  8
0
 10
8.70737216
 20
35.37836647
  0
VERTEX
  8
0
 10
8.51812741
 20
35.79696579
  0
VERTEX
  8
0
 10
8.30943603
 20
36.20443114
  0
VERTEX
  8
0
 10
8.08189178
 20
36.60016875
  0
VERTEX
  8
0
 10
7.83608842
 20
36.98358486
  0
VERTEX
  8
0
 10
7.57261971
 20
37.35408571
  0
VERTEX
  8
0
 10
7.29207940
 20
37.71107754
  0
VERTEX
  8
0
 10
6.99506128
 20
38.05396658
  0
VERTEX
  8
0
 10
6.68215908
 20
38.38215908
  0
VERTEX
  8
0
 10
6.35396658
 20
38.69506128
  0
VERTEX
  8
0
 10
6.01107754
 20
38.99207940
  0
VERTEX
  8
0
 10
5.65408571
 20
39.27261971
  0
VERTEX
  8
0
 10
5.28358486
 20
39.53608842
  0
VERTEX
  8
0
 10
4.90016875
 20
39.78189178
  0
VERTEX
  8
0
 10
4.50443114
 20
40.00943603
  0
VERTEX
  8
0
 10
4.09696579
 20
40.21812741
  0
VERTEX
  8
0
 10
3.67836647
 20
40.40737216
  0
VERTEX
  8
0
 10
3.24922692
 20
40.57657651
  0
VERTEX
  8
0
 10
2.81014093
 20
40.72514670
  0
VERTEX
  8
0
 10
2.36170224
 20
40.85248898
  0
VERTEX
  8
0
 10
1.90450461
 20
40.95800959
  0
VERTEX
  8
0
 10
1.43914181
 20
41.04111475
  0
VERTEX
  8
0
 10
0.96620760
 20
41.10121072
  0
VERTEX
  8
0
 10
0.48629575
 20
41.13770372
  0
VERTEX
  8
0
 10
0.00000000
 20
41.15000000
  0
VERTEX
  8
0
 10
-0.48629575
 20
41.13770372
  0
VERTEX
  8
0
 10
-0.96620760
 20
41.10121072
  0
VERTEX
  8
0
 10
-1.43914181
 20
41.04111475
  0
VERTEX
  8
0
 10
-1.90450461
 20
40.95800959
  0
VERTEX
  8
0
 10
-2.36170224
 20
40.85248898
  0
VERTEX
  8
0
 10
-2.81014093
 20
40.72514670
  0
VERTEX
  8
0
 10
-3.24922692
 20
40.57657651
  0
VERTEX
  8
0
 10
-3.67836647
 20
40.40737216
  0
VERTEX
  8
0
 10
-4.09696579
 20
40.21812741
  0
VERTEX
  8
0
 10
-4.50443114
 20
40.00943603
  0
VERTEX
  8
0
 10
-4.90016875
 20
39.78189178
  0
VERTEX
  8
0
 10
-5.28358486
 20
39.53608842
  0
VERTEX
  8
0
 10
-5.65408571
 20
39.27261971
  0
VERTEX
  8
0
 10
-6.01107754
 20
38.99207940
  0
VERTEX
  8
0
 10
-6.35396658
 20
38.69506128
  0
VERTEX
  8
0
 10
-6.68215908
 20
38.38215908
  0
VERTEX
  8
0
 10
-6.99506128
 20
38.05396658
  0
VERTEX
  8
0
 10
-7.29207940
 20
37.71107754
  0
VERTEX
  8
0
 10
-7.57261971
 20
37.35408571
  0
VERTEX
  8
0
 10
-7.83608842
 20
36.98358486
  0
VERTEX
  8
0
 10
-8.08189178
 20
36.60016875
  0
VERTEX
  8
0
 10
-8.30943603
 20
36.20443114
  0
VERTEX
  8
0
 10
-8.51812741
 20
35.79696579
  0
VERTEX
  8
0
 10
-8.70737216
 20
35.37836647
  0
VERTEX
  8
0
 10
-8.87657651
 20
34.94922692
  0
VERTEX
  8
0
 10
-9.02514670
 20
34.51014093
  0
VERTEX
  8
0
 10
-9.15248898
 20
34.06170224
  0
VERTEX
  8
0
 10
-9.25800959
 20
33.60450461
  0
VERTEX
  8
0
 10
-9.34111475
 20
33.13914181
  0
VERTEX
  8
0
 10
-9.40121072
 20
32.66620760
  0
VERTEX
  8
0
 10
-9.43770372
 20
32.18629575
  0
VERTEX
  8
0
 10
-9.45000000
 20
31.70000000
  0
VERTEX
  8
0
 10
-9.43770372
 20
31.21370425
  0
VERTEX
  8
0
 10
-9.40121072
 20
30.73379240
  0
VERTEX
  8
0
 10
-9.34111475
 20
30.26085819
  0
VERTEX
  8
0
 10
-9.25800959
 20
29.79549539
  0
VERTEX
  8
0
 10
-9.15248898
 20
29.33829776
  0
VERTEX
  8
0
 10
-9.02514670
 20
28.88985907
  0
VERTEX
  8
0
 10
-8.87657651
 20
28.45077308
  0
VERTEX
  8
0
 10
-8.70737216
 20
28.02163353
  0
VERTEX
  8
0
 10
-8.51812741
 20
27.60303421
  0
VERTEX
  8
0
 10
-8.30943603
 20
27.19556886
  0
VERTEX
  8
0
 10
-8.08189178
 20
26.79983125
  0
VERTEX
  8
0
 10
-7.83608842
 20
26.41641514
  0
VERTEX
  8
0
 10
-7.57261971
 20
26.04591429
  0
VERTEX
  8
0
 10
-7.29207940
 20
25.68892246
  0
VERTEX
  8
0
 10
-6.99506128
 20
25.34603342
  0
VERTEX
  8
0
 10
-6.68215908
 20
25.01784092
  0
VERTEX
  8
0
 10
-6.35396658
 20
24.70493872
  0
VERTEX
  8
0
 10
-6.01107754
 20
24.40792060
  0
VERTEX
  8
0
 10
-5.65408571
 20
24.12738029
  0
VERTEX
  8
0
 10
-5.28358486
 20
23.86391158
  0
VERTEX
  8
0
 10
-4.90016875
 20
23.61810822
  0
VERTEX
  8
0
 10
-4.50443114
 20
23.39056397
  0
VERTEX
  8
0
 10
-4.09696579
 20
23.18187259
  0
VERTEX
  8
0
 10
-3.67836647
 20
22.99262784
  0
VERTEX
  8
0
 10
-3.24922692
 20
22.82342349
  0
VERTEX
  8
0
 10
-2.81014093
 20
22.67485330
  0
VERTEX
  8
0
 10
-2.36170224
 20
22.54751102
  0
VERTEX
  8
0
 10
-1.90450461
 20
22.44199041
  0
VERTEX
  8
0
 10
-1.43914181
 20
22.35888525
  0
VERTEX
  8
0
 10
-0.96620760
 20
22.29878928
  0
VERTEX
  8
0
 10
-0.48629575
 20
22.26229628
  0
VERTEX
  8
0
 10
0.00000000
 20
22.25000000
  0
VERTEX
  8
0
 10
0.48629575
 20
22.26229628
  0
VERTEX
  8
0
 10
0.96620760
 20
22.29878928
  0
VERTEX
  8
0
 10
1.43914181
 20
22.35888525
  0
VERTEX
  8
0
 10
1.90450461
 20
22.44199041
  0
VERTEX
  8
0
 10
2.36170224
 20
22.54751102
  0
VERTEX
  8
0
 10
2.81014093
 20
22.67485330
  0
VERTEX
  8
0
 10
3.24922692
 20
22.82342349
  0
VERTEX
  8
0
 10
3.67836647
 20
22.99262784
  0
VERTEX
  8
0
 10
4.09696579
 20
23.18187259
  0
VERTEX
  8
0
 10
4.50443114
 20
23.39056397
  0
VERTEX
  8
0
 10
4.90016875
 20
23.61810822
  0
VERTEX
  8
0
 10
5.28358486
 20
23.86391158
  0
VERTEX
  8
0
 10
5.65408571
 20
24.12738029
  0
VERTEX
  8
0
 10
6.01107754
 20
24.40792060
  0
VERTEX
  8
0
 10
6.35396658
 20
24.70493872
  0
VERTEX
  8
0
 10
6.68215908
 20
25.01784092
  0
VERTEX
  8
0
 10
6.99506128
 20
25.34603342
  0
VERTEX
  8
0
 10
7.29207940
 20
25.68892246
  0
VERTEX
  8
0
 10
7.57261971
 20
26.04591429
  0
VERTEX
  8
0
 10
7.83608842
 20
26.41641514
  0
VERTEX
  8
0
 10
8.08189178
 20
26.79983125
  0
VERTEX
  8
0
 10
8.30943603
 20
27.19556886
  0
VERTEX
  8
0
 10
8.51812741
 20
27.60303421
  0
VERTEX
  8
0
 10
8.70737216
 20
28.02163353
  0
VERTEX
  8
0
 10
8.87657651
 20
28.45077308
  0
VERTEX
  8
0
 10
9.02514670
 20
28.88985907
  0
VERTEX
  8
0
 10
9.15248898
 20
29.33829776
  0
VERTEX
  8
0
 10
9.25800959
 20
29.79549539
  0
VERTEX
  8
0
 10
9.34111475
 20
30.26085819
  0
VERTEX
  8
0
 10
9.40121072
 20
30.73379240
  0
VERTEX
  8
0
 10
9.43770372
 20
31.21370425
  0
VERTEX
  8
0
 10
9.45000000
 20
31.70000000
  0
SEQEND
  0
POLYLINE
  8
Capa por Defecto
 66
   1
 39
0.000000
 70
    1
  0
VERTEX
  8
0
 10
-45.55000000
 20
31.70000000
  0
VERTEX
  8
0
 10
-45.56229628
 20
32.18629575
  0
VERTEX
  8
0
 10
-45.59878928
 20
32.66620760
  0
VERTEX
  8
0
 10
-45.65888525
 20
33.13914181
  0
VERTEX
  8
0
 10
-45.74199041
 20
33.60450461
  0
VERTEX
  8
0
 10
-45.84751102
 20
34.06170224
  0
VERTEX
  8
0
 10
-45.97485330
 20
34.51014093
  0
VERTEX
  8
0
 10
-46.12342349
 20
34.94922692
  0
VERTEX
  8
0
 10
-46.29262784
 20
35.37836647
  0
VERTEX
  8
0
 10
-46.48187259
 20
35.79696579
  0
VERTEX
  8
0
 10
-46.69056397
 20
36.20443114
  0
VERTEX
  8
0
 10
-46.91810822
 20
36.60016875
  0
VERTEX
  8
0
 10
-47.16391158
 20
36.98358486
  0
VERTEX
  8
0
 10
-47.42738029
 20
37.35408571
  0
VERTEX
  8
0
 10
-47.70792060
 20
37.71107754
  0
VERTEX
  8
0
 10
-48.00493872
 20
38.05396658
  0
VERTEX
  8
0
 10
-48.31784092
 20
38.38215908
  0
VERTEX
  8
0
 10
-48.64603342
 20
38.69506128
  0
VERTEX
  8
0
 10
-48.98892246
 20
38.99207940
  0
VERTEX
  8
0
 10
-49.34591429
 20
39.27261971
  0
VERTEX
  8
0
 10
-49.71641514
 20
39.53608842
  0
VERTEX
  8
0
 10
-50.09983125
 20
39.78189178
  0
VERTEX
  8
0
 10
-50.49556886
 20
40.00943603
  0
VERTEX
  8
0
 10
-50.90303421
 20
40.21812741
  0
VERTEX
  8
0
 10
-51.32163353
 20
40.40737216
  0
VERTEX
  8
0
 10
-51.75077308
 20
40.57657651
  0
VERTEX
  8
0
 10
-52.18985907
 20
40.72514670
  0
VERTEX
  8
0
 10
-52.63829776
 20
40.85248898
  0
VERTEX
  8
0
 10
-53.09549539
 20
40.95800959
  0
VERTEX
  8
0
 10
-53.56085819
 20
41.04111475
  0
VERTEX
  8
0
 10
-54.03379240
 20
41.10121072
  0
VERTEX
  8
0
 10
-54.51370425
 20
41.13770372
  0
VERTEX
  8
0
 10
-55.00000000
 20
41.15000000
  0
VERTEX
  8
0
 10
-55.48629575
 20
41.13770372
  0
VERTEX
  8
0
 10
-55.96620760
 20
41.10121072
  0
VERTEX
  8
0
 10
-56.43914181
 20
41.04111475
  0
VERTEX
  8
0
 10
-56.90450461
 20
40.95800959
  0
VERTEX
  8
0
 10
-57.36170224
 20
40.85248898
  0
VERTEX
  8
0
 10
-57.81014093
 20
40.72514670
  0
VERTEX
  8
0
 10
-58.24922692
 20
40.57657651
  0
VERTEX
  8
0
 10
-58.67836647
 20
40.40737216
  0
VERTEX
  8
0
 10
-59.09696579
 20
40.21812741
  0
VERTEX
  8
0
 10
-59.50443114
 20
40.00943603
  0
VERTEX
  8
0
 10
-59.90016875
 20
39.78189178
  0
VERTEX
  8
0
 10
-60.28358486
 20
39.53608842
  0
VERTEX
  8
0
 10
-60.65408571
 20
39.27261971
  0
VERTEX
  8
0
 10
-61.01107754
 20
38.99207940
  0
VERTEX
  8
0
 10
-61.35396658
 20
38.69506128
  0
VERTEX
  8
0
 10
-61.68215908
 20
38.38215908
  0
VERTEX
  8
0
 10
-61.99506128
 20
38.05396658
  0
VERTEX
  8
0
 10
-62.29207940
 20
37.71107754
  0
VERTEX
  8
0
 10
-62.57261971
 20
37.35408571
  0
VERTEX
  8
0
 10
-62.83608842
 20
36.98358486
  0
VERTEX
  8
0
 10
-63.08189178
 20
36.60016875
  0
VERTEX
  8
0
 10
-63.30943603
 20
36.20443114
  0
VERTEX
  8
0
 10
-63.51812741
 20
35.79696579
  0
VERTEX
  8
0
 10
-63.70737216
 20
35.37836647
  0
VERTEX
  8
0
 10
-63.87657651
 20
34.94922692
  0
VERTEX
  8
0
 10
-64.02514670
 20
34.51014093
  0
VERTEX
  8
0
 10
-64.15248898
 20
34.06170224
  0
VERTEX
  8
0
 10
-64.25800959
 20
33.60450461
  0
VERTEX
  8
0
 10
-64.34111475
 20
33.13914181
  0
VERTEX
  8
0
 10
-64.40121072
 20
32.66620760
  0
VERTEX
  8
0
 10
-64.43770372
 20
32.18629575
  0
VERTEX
  8
0
 10
-64.45000000
 20
31.70000000
  0
VERTEX
  8
0
 10
-64.43770372
 20
31.21370425
  0
VERTEX
  8
0
 10
-64.40121072
 20
30.73379240
  0
VERTEX
  8
0
 10
-64.34111475
 20
30.26085819
  0
VERTEX
  8
0
 10
-64.25800959
 20
29.79549539
  0
VERTEX
  8
0
 10
-64.15248898
 20
29.33829776
  0
VERTEX
  8
0
 10
-64.02514670
 20
28.88985907
  0
VERTEX
  8
0
 10
-63.87657651
 20
28.45077308
  0
VERTEX
  8
0
 10
-63.70737216
 20
28.02163353
  0
VERTEX
  8
0
 10
-63.51812741
 20
27.60303421
  0
VERTEX
  8
0
 10
-63.30943603
 20
27.19556886
  0
VERTEX
  8
0
 10
-63.08189178
 20
26.79983125
  0
VERTEX
  8
0
 10
-62.83608842
 20
26.41641514
  0
VERTEX
  8
0
 10
-62.57261971
 20
26.04591429
  0
VERTEX
  8
0
 10
-62.29207940
 20
25.68892246
  0
VERTEX
  8
0
 10
-61.99506128
 20
25.34603342
  0
VERTEX
  8
0
 10
-61.68215908
 20
25.01784092
  0
VERTEX
  8
0
 10
-61.35396658
 20
24.70493872
  0
VERTEX
  8
0
 10
-61.01107754
 20
24.40792060
  0
VERTEX
  8
0
 10
-60.65408571
 20
24.12738029
  0
VERTEX
  8
0
 10
-60.28358486
 20
23.86391158
  0
VERTEX
  8
0
 10
-59.90016875
 20
23.61810822
  0
VERTEX
  8
0
 10
-59.50443114
 20
23.39056397
  0
VERTEX
  8
0
 10
-59.09696579
 20
23.18187259
  0
VERTEX
  8
0
 10
-58.67836647
 20
22.99262784
  0
VERTEX
  8
0
 10
-58.24922692
 20
22.82342349
  0
VERTEX
  8
0
 10
-57.81014093
 20
22.67485330
  0
VERTEX
  8
0
 10
-57.36170224
 20
22.54751102
  0
VERTEX
  8
0
 10
-56.90450461
 20
22.44199041
  0
VERTEX
  8
0
 10
-56.43914181
 20
22.35888525
  0
VERTEX
  8
0
 10
-55.96620760
 20
22.29878928
  0
VERTEX
  8
0
 10
-55.48629575
 20
22.26229628
  0
VERTEX
  8
0
 10
-55.00000000
 20
22.25000000
  0
VERTEX
  8
0
 10
-54.51370425
 20
22.26229628
  0
VERTEX
  8
0
 10
-54.03379240
 20
22.29878928
  0
VERTEX
  8
0
 10
-53.56085819
 20
22.35888525
  0
VERTEX
  8
0
 10
-53.09549539
 20
22.44199041
  0
VERTEX
  8
0
 10
-52.63829776
 20
22.54751102
  0
VERTEX
  8
0
 10
-52.18985907
 20
22.67485330
  0
VERTEX
  8
0
 10
-51.75077308
 20
22.82342349
  0
VERTEX
  8
0
 10
-51.32163353
 20
22.99262784
  0
VERTEX
  8
0
 10
-50.90303421
 20
23.18187259
  0
VERTEX
  8
0
 10
-50.49556886
 20
23.39056397
  0
VERTEX
  8
0
 10
-50.09983125
 20
23.61810822
  0
VERTEX
  8
0
 10
-49.71641514
 20
23.86391158
  0
VERTEX
  8
0
 10
-49.34591429
 20
24.12738029
  0
VERTEX
  8
0
 10
-48.98892246
 20
24.40792060
  0
VERTEX
  8
0
 10
-48.64603342
 20
24.70493872
  0
VERTEX
  8
0
 10
-48.31784092
 20
25.01784092
  0
VERTEX
  8
0
 10
-48.00493872
 20
25.34603342
  0
VERTEX
  8
0
 10
-47.70792060
 20
25.68892246
  0
VERTEX
  8
0
 10
-47.42738029
 20
26.04591429
  0
VERTEX
  8
0
 10
-47.16391158
 20
26.41641514
  0
VERTEX
  8
0
 10
-46.91810822
 20
26.79983125
  0
VERTEX
  8
0
 10
-46.69056397
 20
27.19556886
  0
VERTEX
  8
0
 10
-46.48187259
 20
27.60303421
  0
VERTEX
  8
0
 10
-46.29262784
 20
28.02163353
  0
VERTEX
  8
0
 10
-46.12342349
 20
28.45077308
  0
VERTEX
  8
0
 10
-45.97485330
 20
28.88985907
  0
VERTEX
  8
0
 10
-45.84751102
 20
29.33829776
  0
VERTEX
  8
0
 10
-45.74199041
 20
29.79549539
  0
VERTEX
  8
0
 10
-45.65888525
 20
30.26085819
  0
VERTEX
  8
0
 10
-45.59878928
 20
30.73379240
  0
VERTEX
  8
0
 10
-45.56229628
 20
31.21370425
  0
VERTEX
  8
0
 10
-45.55000000
 20
31.70000000
  0
SEQEND
  0
POLYLINE
  8
Capa por Defecto
 66
   1
 39
0.000000
 70
    1
  0
VERTEX
  8
0
 10
-100.55000000
 20
31.70000000
  0
VERTEX
  8
0
 10
-100.56229628
 20
32.18629575
  0
VERTEX
  8
0
 10
-100.59878928
 20
32.66620760
  0
VERTEX
  8
0
 10
-100.65888525
 20
33.13914181
  0
VERTEX
  8
0
 10
-100.74199041
 20
33.60450461
  0
VERTEX
  8
0
 10
-100.84751102
 20
34.06170224
  0
VERTEX
  8
0
 10
-100.97485330
 20
34.51014093
  0
VERTEX
  8
0
 10
-101.12342349
 20
34.94922692
  0
VERTEX
  8
0
 10
-101.29262784
 20
35.37836647
  0
VERTEX
  8
0
 10
-101.48187259
 20
35.79696579
  0
VERTEX
  8
0
 10
-101.69056397
 20
36.20443114
  0
VERTEX
  8
0
 10
-101.91810822
 20
36.60016875
  0
VERTEX
  8
0
 10
-102.16391158
 20
36.98358486
  0
VERTEX
  8
0
 10
-102.42738029
 20
37.35408571
  0
VERTEX
  8
0
 10
-102.70792060
 20
37.71107754
  0
VERTEX
  8
0
 10
-103.00493872
 20
38.05396658
  0
VERTEX
  8
0
 10
-103.31784092
 20
38.38215908
  0
VERTEX
  8
0
 10
-103.64603342
 20
38.69506128
  0
VERTEX
  8
0
 10
-103.98892246
 20
38.99207940
  0
VERTEX
  8
0
 10
-104.34591429
 20
39.27261971
  0
VERTEX
  8
0
 10
-104.71641514
 20
39.53608842
  0
VERTEX
  8
0
 10
-105.09983125
 20
39.78189178
  0
VERTEX
  8
0
 10
-105.49556886
 20
40.00943603
  0
VERTEX
  8
0
 10
-105.90303421
 20
40.21812741
  0
VERTEX
  8
0
 10
-106.32163353
 20
40.40737216
  0
VERTEX
  8
0
 10
-106.75077308
 20
40.57657651
  0
VERTEX
  8
0
 10
-107.18985907
 20
40.72514670
  0
VERTEX
  8
0
 10
-107.63829776
 20
40.85248898
  0
VERTEX
  8
0
 10
-108.09549539
 20
40.95800959
  0
VERTEX
  8
0
 10
-108.56085819
 20
41.04111475
  0
VERTEX
  8
0
 10
-109.03379240
 20
41.10121072
  0
VERTEX
  8
0
 10
-109.51370425
 20
41.13770372
  0
VERTEX
  8
0
 10
-110.00000000
 20
41.15000000
  0
VERTEX
  8
0
 10
-110.48629575
 20
41.13770372
  0
VERTEX
  8
0
 10
-110.96620760
 20
41.10121072
  0
VERTEX
  8
0
 10
-111.43914181
 20
41.04111475
  0
VERTEX
  8
0
 10
-111.90450461
 20
40.95800959
  0
VERTEX
  8
0
 10
-112.36170224
 20
40.85248898
  0
VERTEX
  8
0
 10
-112.81014093
 20
40.72514670
  0
VERTEX
  8
0
 10
-113.24922692
 20
40.57657651
  0
VERTEX
  8
0
 10
-113.67836647
 20
40.40737216
  0
VERTEX
  8
0
 10
-114.09696579
 20
40.21812741
  0
VERTEX
  8
0
 10
-114.50443114
 20
40.00943603
  0
VERTEX
  8
0
 10
-114.90016875
 20
39.78189178
  0
VERTEX
  8
0
 10
-115.28358486
 20
39.53608842
  0
VERTEX
  8
0
 10
-115.65408571
 20
39.27261971
  0
VERTEX
  8
0
 10
-116.01107754
 20
38.99207940
  0
VERTEX
  8
0
 10
-116.35396658
 20
38.69506128
  0
VERTEX
  8
0
 10
-116.68215908
 20
38.38215908
  0
VERTEX
  8
0
 10
-116.99506128
 20
38.05396658
  0
VERTEX
  8
0
 10
-117.29207940
 20
37.71107754
  0
VERTEX
  8
0
 10
-117.57261971
 20
37.35408571
  0
VERTEX
  8
0
 10
-117.83608842
 20
36.98358486
  0
VERTEX
  8
0
 10
-118.08189178
 20
36.60016875
  0
VERTEX
  8
0
 10
-118.30943603
 20
36.20443114
  0
VERTEX
  8
0
 10
-118.51812741
 20
35.79696579
  0
VERTEX
  8
0
 10
-118.70737216
 20
35.37836647
  0
VERTEX
  8
0
 10
-118.87657651
 20
34.94922692
  0
VERTEX
  8
0
 10
-119.02514670
 20
34.51014093
  0
VERTEX
  8
0
 10
-119.15248898
 20
34.06170224
  0
VERTEX
  8
0
 10
-119.25800959
 20
33.60450461
  0
VERTEX
  8
0
 10
-119.34111475
 20
33.13914181
  0
VERTEX
  8
0
 10
-119.40121072
 20
32.66620760
  0
VERTEX
  8
0
 10
-119.43770372
 20
32.18629575
  0
VERTEX
  8
0
 10
-119.45000000
 20
31.70000000
  0
VERTEX
  8
0
 10
-119.43770372
 20
31.21370425
  0
VERTEX
  8
0
 10
-119.40121072
 20
30.73379240
  0
VERTEX
  8
0
 10
-119.34111475
 20
30.26085819
  0
VERTEX
  8
0
 10
-119.25800959
 20
29.79549539
  0
VERTEX
  8
0
 10
-119.15248898
 20
29.33829776
  0
VERTEX
  8
0
 10
-119.02514670
 20
28.88985907
  0
VERTEX
  8
0
 10
-118.87657651
 20
28.45077308
  0
VERTEX
  8
0
 10
-118.70737216
 20
28.02163353
  0
VERTEX
  8
0
 10
-118.51812741
 20
27.60303421
  0
VERTEX
  8
0
 10
-118.30943603
 20
27.19556886
  0
VERTEX
  8
0
 10
-118.08189178
 20
26.79983125
  0
VERTEX
  8
0
 10
-117.83608842
 20
26.41641514
  0
VERTEX
  8
0
 10
-117.57261971
 20
26.04591429
  0
VERTEX
  8
0
 10
-117.29207940
 20
25.68892246
  0
VERTEX
  8
0
 10
-116.99506128
 20
25.34603342
  0
VERTEX
  8
0
 10
-116.68215908
 20
25.01784092
  0
VERTEX
  8
0
 10
-116.35396658
 20
24.70493872
  0
VERTEX
  8
0
 10
-116.01107754
 20
24.40792060
  0
VERTEX
  8
0
 10
-115.65408571
 20
24.12738029
  0
VERTEX
  8
0
 10
-115.28358486
 20
23.86391158
  0
VERTEX
  8
0
 10
-114.90016875
 20
23.61810822
  0
VERTEX
  8
0
 10
-114.50443114
 20
23.39056397
  0
VERTEX
  8
0
 10
-114.09696579
 20
23.18187259
  0
VERTEX
  8
0
 10
-113.67836647
 20
22.99262784
  0
VERTEX
  8
0
 10
-113.24922692
 20
22.82342349
  0
VERTEX
  8
0
 10
-112.81014093
 20
22.67485330
  0
VERTEX
  8
0
 10
-112.36170224
 20
22.54751102
  0
VERTEX
  8
0
 10
-111.90450461
 20
22.44199041
  0
VERTEX
  8
0
 10
-111.43914181
 20
22.35888525
  0
VERTEX
  8
0
 10
-110.96620760
 20
22.29878928
  0
VERTEX
  8
0
 10
-110.48629575
 20
22.26229628
  0
VERTEX
  8
0
 10
-110.00000000
 20
22.25000000
  0
VERTEX
  8
0
 10
-109.51370425
 20
22.26229628
  0
VERTEX
  8
0
 10
-109.03379240
 20
22.29878928
  0
VERTEX
  8
0
 10
-108.56085819
 20
22.35888525
  0
VERTEX
  8
0
 10
-108.09549539
 20
22.44199041
  0
VERTEX
  8
0
 10
-107.63829776
 20
22.54751102
  0
VERTEX
  8
0
 10
-107.18985907
 20
22.67485330
  0
VERTEX
  8
0
 10
-106.75077308
 20
22.82342349
  0
VERTEX
  8
0
 10
-106.32163353
 20
22.99262784
  0
VERTEX
  8
0
 10
-105.90303421
 20
23.18187259
  0
VERTEX
  8
0
 10
-105.49556886
 20
23.39056397
  0
VERTEX
  8
0
 10
-105.09983125
 20
23.61810822
  0
VERTEX
  8
0
 10
-104.71641514
 20
23.86391158
  0
VERTEX
  8
0
 10
-104.34591429
 20
24.12738029
  0
VERTEX
  8
0
 10
-103.98892246
 20
24.40792060
  0
VERTEX
  8
0
 10
-103.64603342
 20
24.70493872
  0
VERTEX
  8
0
 10
-103.31784092
 20
25.01784092
  0
VERTEX
  8
0
 10
-103.00493872
 20
25.34603342
  0
VERTEX
  8
0
 10
-102.70792060
 20
25.68892246
  0
VERTEX
  8
0
 10
-102.42738029
 20
26.04591429
  0
VERTEX
  8
0
 10
-102.16391158
 20
26.41641514
  0
VERTEX
  8
0
 10
-101.91810822
 20
26.79983125
  0
VERTEX
  8
0
 10
-101.69056397
 20
27.19556886
  0
VERTEX
  8
0
 10
-101.48187259
 20
27.60303421
  0
VERTEX
  8
0
 10
-101.29262784
 20
28.02163353
  0
VERTEX
  8
0
 10
-101.12342349
 20
28.45077308
  0
VERTEX
  8
0
 10
-100.97485330
 20
28.88985907
  0
VERTEX
  8
0
 10
-100.84751102
 20
29.33829776
  0
VERTEX
  8
0
 10
-100.74199041
 20
29.79549539
  0
VERTEX
  8
0
 10
-100.65888525
 20
30.26085819
  0
VERTEX
  8
0
 10
-100.59878928
 20
30.73379240
  0
VERTEX
  8
0
 10
-100.56229628
 20
31.21370425
  0
VERTEX
  8
0
 10
-100.55000000
 20
31.70000000
  0
SEQEND
  0
POLYLINE
  8
Capa por Defecto
 66
   1
 39
0.000000
 70
    1
  0
VERTEX
  8
0
 10
-155.55000000
 20
31.70000000
  0
VERTEX
  8
0
 10
-155.56229628
 20
32.18629575
  0
VERTEX
  8
0
 10
-155.59878928
 20
32.66620760
  0
VERTEX
  8
0
 10
-155.65888525
 20
33.13914181
  0
VERTEX
  8
0
 10
-155.74199041
 20
33.60450461
  0
VERTEX
  8
0
 10
-155.84751102
 20
34.06170224
  0
VERTEX
  8
0
 10
-155.97485330
 20
34.51014093
  0
VERTEX
  8
0
 10
-156.12342349
 20
34.94922692
  0
VERTEX
  8
0
 10
-156.29262784
 20
35.37836647
  0
VERTEX
  8
0
 10
-156.48187259
 20
35.79696579
  0
VERTEX
  8
0
 10
-156.69056397
 20
36.20443114
  0
VERTEX
  8
0
 10
-156.91810822
 20
36.60016875
  0
VERTEX
  8
0
 10
-157.16391158
 20
36.98358486
  0
VERTEX
  8
0
 10
-157.42738029
 20
37.35408571
  0
VERTEX
  8
0
 10
-157.70792060
 20
37.71107754
  0
VERTEX
  8
0
 10
-158.00493872
 20
38.05396658
  0
VERTEX
  8
0
 10
-158.31784092
 20
38.38215908
  0
VERTEX
  8
0
 10
-158.64603342
 20
38.69506128
  0
VERTEX
  8
0
 10
-158.98892246
 20
38.99207940
  0
VERTEX
  8
0
 10
-159.34591429
 20
39.27261971
  0
VERTEX
  8
0
 10
-159.71641514
 20
39.53608842
  0
VERTEX
  8
0
 10
-160.09983125
 20
39.78189178
  0
VERTEX
  8
0
 10
-160.49556886
 20
40.00943603
  0
VERTEX
  8
0
 10
-160.90303421
 20
40.21812741
  0
VERTEX
  8
0
 10
-161.32163353
 20
40.40737216
  0
VERTEX
  8
0
 10
-161.75077308
 20
40.57657651
  0
VERTEX
  8
0
 10
-162.18985907
 20
40.72514670
  0
VERTEX
  8
0
 10
-162.63829776
 20
40.85248898
  0
VERTEX
  8
0
 10
-163.09549539
 20
40.95800959
  0
VERTEX
  8
0
 10
-163.56085819
 20
41.04111475
  0
VERTEX
  8
0
 10
-164.03379240
 20
41.10121072
  0
VERTEX
  8
0
 10
-164.51370425
 20
41.13770372
  0
VERTEX
  8
0
 10
-165.00000000
 20
41.15000000
  0
VERTEX
  8
0
 10
-165.48629575
 20
41.13770372
  0
VERTEX
  8
0
 10
-165.96620760
 20
41.10121072
  0
VERTEX
  8
0
 10
-166.43914181
 20
41.04111475
  0
VERTEX
  8
0
 10
-166.90450461
 20
40.95800959
  0
VERTEX
  8
0
 10
-167.36170224
 20
40.85248898
  0
VERTEX
  8
0
 10
-167.81014093
 20
40.72514670
  0
VERTEX
  8
0
 10
-168.24922692
 20
40.57657651
  0
VERTEX
  8
0
 10
-168.67836647
 20
40.40737216
  0
VERTEX
  8
0
 10
-169.09696579
 20
40.21812741
  0
VERTEX
  8
0
 10
-169.50443114
 20
40.00943603
  0
VERTEX
  8
0
 10
-169.90016875
 20
39.78189178
  0
VERTEX
  8
0
 10
-170.28358486
 20
39.53608842
  0
VERTEX
  8
0
 10
-170.65408571
 20
39.27261971
  0
VERTEX
  8
0
 10
-171.01107754
 20
38.99207940
  0
VERTEX
  8
0
 10
-171.35396658
 20
38.69506128
  0
VERTEX
  8
0
 10
-171.68215908
 20
38.38215908
  0
VERTEX
  8
0
 10
-171.99506128
 20
38.05396658
  0
VERTEX
  8
0
 10
-172.29207940
 20
37.71107754
  0
VERTEX
  8
0
 10
-172.57261971
 20
37.35408571
  0
VERTEX
  8
0
 10
-172.83608842
 20
36.98358486
  0
VERTEX
  8
0
 10
-173.08189178
 20
36.60016875
  0
VERTEX
  8
0
 10
-173.30943603
 20
36.20443114
  0
VERTEX
  8
0
 10
-173.51812741
 20
35.79696579
  0
VERTEX
  8
0
 10
-173.70737216
 20
35.37836647
  0
VERTEX
  8
0
 10
-173.87657651
 20
34.94922692
  0
VERTEX
  8
0
 10
-174.02514670
 20
34.51014093
  0
VERTEX
  8
0
 10
-174.15248898
 20
34.06170224
  0
VERTEX
  8
0
 10
-174.25800959
 20
33.60450461
  0
VERTEX
  8
0
 10
-174.34111475
 20
33.13914181
  0
VERTEX
  8
0
 10
-174.40121072
 20
32.66620760
  0
VERTEX
  8
0
 10
-174.43770372
 20
32.18629575
  0
VERTEX
  8
0
 10
-174.45000000
 20
31.70000000
  0
VERTEX
  8
0
 10
-174.43770372
 20
31.21370425
  0
VERTEX
  8
0
 10
-174.40121072
 20
30.73379240
  0
VERTEX
  8
0
 10
-174.34111475
 20
30.26085819
  0
VERTEX
  8
0
 10
-174.25800959
 20
29.79549539
  0
VERTEX
  8
0
 10
-174.15248898
 20
29.33829776
  0
VERTEX
  8
0
 10
-174.02514670
 20
28.88985907
  0
VERTEX
  8
0
 10
-173.87657651
 20
28.45077308
  0
VERTEX
  8
0
 10
-173.70737216
 20
28.02163353
  0
VERTEX
  8
0
 10
-173.51812741
 20
27.60303421
  0
VERTEX
  8
0
 10
-173.30943603
 20
27.19556886
  0
VERTEX
  8
0
 10
-173.08189178
 20
26.79983125
  0
VERTEX
  8
0
 10
-172.83608842
 20
26.41641514
  0
VERTEX
  8
0
 10
-172.57261971
 20
26.04591429
  0
VERTEX
  8
0
 10
-172.29207940
 20
25.68892246
  0
VERTEX
  8
0
 10
-171.99506128
 20
25.34603342
  0
VERTEX
  8
0
 10
-171.68215908
 20
25.01784092
  0
VERTEX
  8
0
 10
-171.35396658
 20
24.70493872
  0
VERTEX
  8
0
 10
-171.01107754
 20
24.40792060
  0
VERTEX
  8
0
 10
-170.65408571
 20
24.12738029
  0
VERTEX
  8
0
 10
-170.28358486
 20
23.86391158
  0
VERTEX
  8
0
 10
-169.90016875
 20
23.61810822
  0
VERTEX
  8
0
 10
-169.50443114
 20
23.39056397
  0
VERTEX
  8
0
 10
-169.09696579
 20
23.18187259
  0
VERTEX
  8
0
 10
-168.67836647
 20
22.99262784
  0
VERTEX
  8
0
 10
-168.24922692
 20
22.82342349
  0
VERTEX
  8
0
 10
-167.81014093
 20
22.67485330
  0
VERTEX
  8
0
 10
-167.36170224
 20
22.54751102
  0
VERTEX
  8
0
 10
-166.90450461
 20
22.44199041
  0
VERTEX
  8
0
 10
-166.43914181
 20
22.35888525
  0
VERTEX
  8
0
 10
-165.96620760
 20
22.29878928
  0
VERTEX
  8
0
 10
-165.48629575
 20
22.26229628
  0
VERTEX
  8
0
 10
-165.00000000
 20
22.25000000
  0
VERTEX
  8
0
 10
-164.51370425
 20
22.26229628
  0
VERTEX
  8
0
 10
-164.03379240
 20
22.29878928
  0
VERTEX
  8
0
 10
-163.56085819
 20
22.35888525
  0
VERTEX
  8
0
 10
-163.09549539
 20
22.44199041
  0
VERTEX
  8
0
 10
-162.63829776
 20
22.54751102
  0
VERTEX
  8
0
 10
-162.18985907
 20
22.67485330
  0
VERTEX
  8
0
 10
-161.75077308
 20
22.82342349
  0
VERTEX
  8
0
 10
-161.32163353
 20
22.99262784
  0
VERTEX
  8
0
 10
-160.90303421
 20
23.18187259
  0
VERTEX
  8
0
 10
-160.49556886
 20
23.39056397
  0
VERTEX
  8
0
 10
-160.09983125
 20
23.61810822
  0
VERTEX
  8
0
 10
-159.71641514
 20
23.86391158
  0
VERTEX
  8
0
 10
-159.34591429
 20
24.12738029
  0
VERTEX
  8
0
 10
-158.98892246
 20
24.40792060
  0
VERTEX
  8
0
 10
-158.64603342
 20
24.70493872
  0
VERTEX
  8
0
 10
-158.31784092
 20
25.01784092
  0
VERTEX
  8
0
 10
-158.00493872
 20
25.34603342
  0
VERTEX
  8
0
 10
-157.70792060
 20
25.68892246
  0
VERTEX
  8
0
 10
-157.42738029
 20
26.04591429
  0
VERTEX
  8
0
 10
-157.16391158
 20
26.41641514
  0
VERTEX
  8
0
 10
-156.91810822
 20
26.79983125
  0
VERTEX
  8
0
 10
-156.69056397
 20
27.19556886
  0
VERTEX
  8
0
 10
-156.48187259
 20
27.60303421
  0
VERTEX
  8
0
 10
-156.29262784
 20
28.02163353
  0
VERTEX
  8
0
 10
-156.12342349
 20
28.45077308
  0
VERTEX
  8
0
 10
-155.97485330
 20
28.88985907
  0
VERTEX
  8
0
 10
-155.84751102
 20
29.33829776
  0
VERTEX
  8
0
 10
-155.74199041
 20
29.79549539
  0
VERTEX
  8
0
 10
-155.65888525
 20
30.26085819
  0
VERTEX
  8
0
 10
-155.59878928
 20
30.73379240
  0
VERTEX
  8
0
 10
-155.56229628
 20
31.21370425
  0
VERTEX
  8
0
 10
-155.55000000
 20
31.70000000
  0
SEQEND
  0
POLYLINE
  8
Capa por Defecto
 66
   1
 39
0.000000
 70
    0
  0
VERTEX
  8
0
 10
-107.40144390
 20
-20.70000000
  0
VERTEX
  8
0
 10
-107.40139354
 20
-20.69991482
  0
SEQEND
  0
POLYLINE
  8
Capa por Defecto
 66
   1
 39
0.000000
 70
    0
  0
VERTEX
  8
0
 10
-107.40139354
 20
-20.69991482
  0
VERTEX
  8
0
 10
-107.40150000
 20
-20.70000000
  0
SEQEND
  0
POLYLINE
  8
Capa por Defecto
 66
   1
 39
0.000000
 70
    0
  0
VERTEX
  8
0
 10
-107.40144390
 20
-20.70000000
  0
VERTEX
  8
0
 10
-107.40139354
 20
-20.69991482
  0
SEQEND
  0
POLYLINE
  8
Capa por Defecto
 66
   1
 39
0.000000
 70
    0
  0
VERTEX
  8
0
 10
-107.40139354
 20
-20.69991482
  0
VERTEX
  8
0
 10
-107.40150000
 20
-20.70000000
  0
SEQEND
  0
POLYLINE
  8
Capa por Defecto
 66
   1
 39
0.000000
 70
    0
  0
VERTEX
  8
0
 10
-52.40144390
 20
-20.70000000
  0
VERTEX
  8
0
 10
-52.40139354
 20
-20.69991482
  0
SEQEND
  0
POLYLINE
  8
Capa por Defecto
 66
   1
 39
0.000000
 70
    0
  0
VERTEX
  8
0
 10
-52.40139354
 20
-20.69991482
  0
VERTEX
  8
0
 10
-52.40150000
 20
-20.70000000
  0
SEQEND
  0
POLYLINE
  8
Capa por Defecto
 66
   1
 39
0.000000
 70
    1
  0
VERTEX
  8
0
 10
-49.50000000
 20
-31.70000000
  0
VERTEX
  8
0
 10
-49.52839588
 20
-31.13765695
  0
VERTEX
  8
0
 10
-49.61174045
 20
-30.59155816
  0
VERTEX
  8
0
 10
-49.74726911
 20
-30.06446824
  0
VERTEX
  8
0
 10
-49.93221726
 20
-29.55915179
  0
VERTEX
  8
0
 10
-50.16382030
 20
-29.07837341
  0
VERTEX
  8
0
 10
-50.43931362
 20
-28.62489770
  0
VERTEX
  8
0
 10
-50.75593262
 20
-28.20148926
  0
VERTEX
  8
0
 10
-51.11091270
 20
-27.81091270
  0
VERTEX
  8
0
 10
-51.50148926
 20
-27.45593262
  0
VERTEX
  8
0
 10
-51.92489770
 20
-27.13931362
  0
VERTEX
  8
0
 10
-52.37837341
 20
-26.86382030
  0
VERTEX
  8
0
 10
-52.85915179
 20
-26.63221726
  0
VERTEX
  8
0
 10
-53.36446824
 20
-26.44726911
  0
VERTEX
  8
0
 10
-53.89155816
 20
-26.31174045
  0
VERTEX
  8
0
 10
-54.43765695
 20
-26.22839588
  0
VERTEX
  8
0
 10
-55.00000000
 20
-26.20000000
  0
VERTEX
  8
0
 10
-55.56234305
 20
-26.22839588
  0
VERTEX
  8
0
 10
-56.10844184
 20
-26.31174045
  0
VERTEX
  8
0
 10
-56.63553176
 20
-26.44726911
  0
VERTEX
  8
0
 10
-57.14084821
 20
-26.63221726
  0
VERTEX
  8
0
 10
-57.62162659
 20
-26.86382030
  0
VERTEX
  8
0
 10
-58.07510230
 20
-27.13931362
  0
VERTEX
  8
0
 10
-58.49851074
 20
-27.45593262
  0
VERTEX
  8
0
 10
-58.88908730
 20
-27.81091270
  0
VERTEX
  8
0
 10
-59.24406738
 20
-28.20148926
  0
VERTEX
  8
0
 10
-59.56068638
 20
-28.62489770
  0
VERTEX
  8
0
 10
-59.83617970
 20
-29.07837341
  0
VERTEX
  8
0
 10
-60.06778274
 20
-29.55915179
  0
VERTEX
  8
0
 10
-60.25273089
 20
-30.06446824
  0
VERTEX
  8
0
 10
-60.38825955
 20
-30.59155816
  0
VERTEX
  8
0
 10
-60.47160412
 20
-31.13765695
  0
VERTEX
  8
0
 10
-60.50000000
 20
-31.70000000
  0
VERTEX
  8
0
 10
-60.47160412
 20
-32.26234305
  0
VERTEX
  8
0
 10
-60.38825955
 20
-32.80844184
  0
VERTEX
  8
0
 10
-60.25273089
 20
-33.33553176
  0
VERTEX
  8
0
 10
-60.06778274
 20
-33.84084821
  0
VERTEX
  8
0
 10
-59.83617970
 20
-34.32162659
  0
VERTEX
  8
0
 10
-59.56068638
 20
-34.77510230
  0
VERTEX
  8
0
 10
-59.24406738
 20
-35.19851074
  0
VERTEX
  8
0
 10
-58.88908730
 20
-35.58908730
  0
VERTEX
  8
0
 10
-58.49851074
 20
-35.94406738
  0
VERTEX
  8
0
 10
-58.07510230
 20
-36.26068638
  0
VERTEX
  8
0
 10
-57.62162659
 20
-36.53617970
  0
VERTEX
  8
0
 10
-57.14084821
 20
-36.76778274
  0
VERTEX
  8
0
 10
-56.63553176
 20
-36.95273089
  0
VERTEX
  8
0
 10
-56.10844184
 20
-37.08825955
  0
VERTEX
  8
0
 10
-55.56234305
 20
-37.17160412
  0
VERTEX
  8
0
 10
-55.00000000
 20
-37.20000000
  0
VERTEX
  8
0
 10
-54.43765695
 20
-37.17160412
  0
VERTEX
  8
0
 10
-53.89155816
 20
-37.08825955
  0
VERTEX
  8
0
 10
-53.36446824
 20
-36.95273089
  0
VERTEX
  8
0
 10
-52.85915179
 20
-36.76778274
  0
VERTEX
  8
0
 10
-52.37837341
 20
-36.53617970
  0
VERTEX
  8
0
 10
-51.92489770
 20
-36.26068638
  0
VERTEX
  8
0
 10
-51.50148926
 20
-35.94406738
  0
VERTEX
  8
0
 10
-51.11091270
 20
-35.58908730
  0
VERTEX
  8
0
 10
-50.75593262
 20
-35.19851074
  0
VERTEX
  8
0
 10
-50.43931362
 20
-34.77510230
  0
VERTEX
  8
0
 10
-50.16382030
 20
-34.32162659
  0
VERTEX
  8
0
 10
-49.93221726
 20
-33.84084821
  0
VERTEX
  8
0
 10
-49.74726911
 20
-33.33553176
  0
VERTEX
  8
0
 10
-49.61174045
 20
-32.80844184
  0
VERTEX
  8
0
 10
-49.52839588
 20
-32.26234305
  0
VERTEX
  8
0
 10
-49.50000000
 20
-31.70000000
  0
SEQEND
  0
POLYLINE
  8
Capa por Defecto
 66
   1
 39
0.000000
 70
    0
  0
VERTEX
  8
0
 10
-52.40144390
 20
-20.70000000
  0
VERTEX
  8
0
 10
-52.40139354
 20
-20.69991482
  0
SEQEND
  0
POLYLINE
  8
Capa por Defecto
 66
   1
 39
0.000000
 70
    0
  0
VERTEX
  8
0
 10
-52.40139354
 20
-20.69991482
  0
VERTEX
  8
0
 10
-52.40150000
 20
-20.70000000
  0
SEQEND
  0
POLYLINE
  8
Capa por Defecto
 66
   1
 39
0.000000
 70
    0
  0
VERTEX
  8
0
 10
2.59855610
 20
-20.70000000
  0
VERTEX
  8
0
 10
2.59860646
 20
-20.69991482
  0
SEQEND
  0
POLYLINE
  8
Capa por Defecto
 66
   1
 39
0.000000
 70
    0
  0
VERTEX
  8
0
 10
2.59860646
 20
-20.69991482
  0
VERTEX
  8
0
 10
2.59850000
 20
-20.70000000
  0
SEQEND
  0
POLYLINE
  8
Capa por Defecto
 66
   1
 39
0.000000
 70
    1
  0
VERTEX
  8
0
 10
5.50000000
 20
-31.70000000
  0
VERTEX
  8
0
 10
5.47160412
 20
-31.13765695
  0
VERTEX
  8
0
 10
5.38825955
 20
-30.59155816
  0
VERTEX
  8
0
 10
5.25273089
 20
-30.06446824
  0
VERTEX
  8
0
 10
5.06778274
 20
-29.55915179
  0
VERTEX
  8
0
 10
4.83617970
 20
-29.07837341
  0
VERTEX
  8
0
 10
4.56068638
 20
-28.62489770
  0
VERTEX
  8
0
 10
4.24406738
 20
-28.20148926
  0
VERTEX
  8
0
 10
3.88908730
 20
-27.81091270
  0
VERTEX
  8
0
 10
3.49851074
 20
-27.45593262
  0
VERTEX
  8
0
 10
3.07510230
 20
-27.13931362
  0
VERTEX
  8
0
 10
2.62162659
 20
-26.86382030
  0
VERTEX
  8
0
 10
2.14084821
 20
-26.63221726
  0
VERTEX
  8
0
 10
1.63553176
 20
-26.44726911
  0
VERTEX
  8
0
 10
1.10844184
 20
-26.31174045
  0
VERTEX
  8
0
 10
0.56234305
 20
-26.22839588
  0
VERTEX
  8
0
 10
0.00000000
 20
-26.20000000
  0
VERTEX
  8
0
 10
-0.56234305
 20
-26.22839588
  0
VERTEX
  8
0
 10
-1.10844184
 20
-26.31174045
  0
VERTEX
  8
0
 10
-1.63553176
 20
-26.44726911
  0
VERTEX
  8
0
 10
-2.14084821
 20
-26.63221726
  0
VERTEX
  8
0
 10
-2.62162659
 20
-26.86382030
  0
VERTEX
  8
0
 10
-3.07510230
 20
-27.13931362
  0
VERTEX
  8
0
 10
-3.49851074
 20
-27.45593262
  0
VERTEX
  8
0
 10
-3.88908730
 20
-27.81091270
  0
VERTEX
  8
0
 10
-4.24406738
 20
-28.20148926
  0
VERTEX
  8
0
 10
-4.56068638
 20
-28.62489770
  0
VERTEX
  8
0
 10
-4.83617970
 20
-29.07837341
  0
VERTEX
  8
0
 10
-5.06778274
 20
-29.55915179
  0
VERTEX
  8
0
 10
-5.25273089
 20
-30.06446824
  0
VERTEX
  8
0
 10
-5.38825955
 20
-30.59155816
  0
VERTEX
  8
0
 10
-5.47160412
 20
-31.13765695
  0
VERTEX
  8
0
 10
-5.50000000
 20
-31.70000000
  0
VERTEX
  8
0
 10
-5.47160412
 20
-32.26234305
  0
VERTEX
  8
0
 10
-5.38825955
 20
-32.80844184
  0
VERTEX
  8
0
 10
-5.25273089
 20
-33.33553176
  0
VERTEX
  8
0
 10
-5.06778274
 20
-33.84084821
  0
VERTEX
  8
0
 10
-4.83617970
 20
-34.32162659
  0
VERTEX
  8
0
 10
-4.56068638
 20
-34.77510230
  0
VERTEX
  8
0
 10
-4.24406738
 20
-35.19851074
  0
VERTEX
  8
0
 10
-3.88908730
 20
-35.58908730
  0
VERTEX
  8
0
 10
-3.49851074
 20
-35.94406738
  0
VERTEX
  8
0
 10
-3.07510230
 20
-36.26068638
  0
VERTEX
  8
0
 10
-2.62162659
 20
-36.53617970
  0
VERTEX
  8
0
 10
-2.14084821
 20
-36.76778274
  0
VERTEX
  8
0
 10
-1.63553176
 20
-36.95273089
  0
VERTEX
  8
0
 10
-1.10844184
 20
-37.08825955
  0
VERTEX
  8
0
 10
-0.56234305
 20
-37.17160412
  0
VERTEX
  8
0
 10
0.00000000
 20
-37.20000000
  0
VERTEX
  8
0
 10
0.56234305
 20
-37.17160412
  0
VERTEX
  8
0
 10
1.10844184
 20
-37.08825955
  0
VERTEX
  8
0
 10
1.63553176
 20
-36.95273089
  0
VERTEX
  8
0
 10
2.14084821
 20
-36.76778274
  0
VERTEX
  8
0
 10
2.62162659
 20
-36.53617970
  0
VERTEX
  8
0
 10
3.07510230
 20
-36.26068638
  0
VERTEX
  8
0
 10
3.49851074
 20
-35.94406738
  0
VERTEX
  8
0
 10
3.88908730
 20
-35.58908730
  0
VERTEX
  8
0
 10
4.24406738
 20
-35.19851074
  0
VERTEX
  8
0
 10
4.56068638
 20
-34.77510230
  0
VERTEX
  8
0
 10
4.83617970
 20
-34.32162659
  0
VERTEX
  8
0
 10
5.06778274
 20
-33.84084821
  0
VERTEX
  8
0
 10
5.25273089
 20
-33.33553176
  0
VERTEX
  8
0
 10
5.38825955
 20
-32.80844184
  0
VERTEX
  8
0
 10
5.47160412
 20
-32.26234305
  0
VERTEX
  8
0
 10
5.50000000
 20
-31.70000000
  0
SEQEND
  0
POLYLINE
  8
Capa por Defecto
 66
   1
 39
0.000000
 70
    0
  0
VERTEX
  8
0
 10
2.59855610
 20
-20.70000000
  0
VERTEX
  8
0
 10
2.59860646
 20
-20.69991482
  0
SEQEND
  0
POLYLINE
  8
Capa por Defecto
 66
   1
 39
0.000000
 70
    0
  0
VERTEX
  8
0
 10
2.59860646
 20
-20.69991482
  0
VERTEX
  8
0
 10
2.59850000
 20
-20.70000000
  0
SEQEND
  0
POLYLINE
  8
Capa por Defecto
 66
   1
 39
0.000000
 70
    0
  0
VERTEX
  8
0
 10
57.59855610
 20
-20.70000000
  0
VERTEX
  8
0
 10
57.59860646
 20
-20.69991482
  0
SEQEND
  0
POLYLINE
  8
Capa por Defecto
 66
   1
 39
0.000000
 70
    0
  0
VERTEX
  8
0
 10
57.59860646
 20
-20.69991482
  0
VERTEX
  8
0
 10
57.59850000
 20
-20.70000000
  0
SEQEND
  0
POLYLINE
  8
Capa por Defecto
 66
   1
 39
0.000000
 70
    1
  0
VERTEX
  8
0
 10
60.50000000
 20
-31.70000000
  0
VERTEX
  8
0
 10
60.47160412
 20
-31.13765695
  0
VERTEX
  8
0
 10
60.38825955
 20
-30.59155816
  0
VERTEX
  8
0
 10
60.25273089
 20
-30.06446824
  0
VERTEX
  8
0
 10
60.06778274
 20
-29.55915179
  0
VERTEX
  8
0
 10
59.83617970
 20
-29.07837341
  0
VERTEX
  8
0
 10
59.56068638
 20
-28.62489770
  0
VERTEX
  8
0
 10
59.24406738
 20
-28.20148926
  0
VERTEX
  8
0
 10
58.88908730
 20
-27.81091270
  0
VERTEX
  8
0
 10
58.49851074
 20
-27.45593262
  0
VERTEX
  8
0
 10
58.07510230
 20
-27.13931362
  0
VERTEX
  8
0
 10
57.62162659
 20
-26.86382030
  0
VERTEX
  8
0
 10
57.14084821
 20
-26.63221726
  0
VERTEX
  8
0
 10
56.63553176
 20
-26.44726911
  0
VERTEX
  8
0
 10
56.10844184
 20
-26.31174045
  0
VERTEX
  8
0
 10
55.56234305
 20
-26.22839588
  0
VERTEX
  8
0
 10
55.00000000
 20
-26.20000000
  0
VERTEX
  8
0
 10
54.43765695
 20
-26.22839588
  0
VERTEX
  8
0
 10
53.89155816
 20
-26.31174045
  0
VERTEX
  8
0
 10
53.36446824
 20
-26.44726911
  0
VERTEX
  8
0
 10
52.85915179
 20
-26.63221726
  0
VERTEX
  8
0
 10
52.37837341
 20
-26.86382030
  0
VERTEX
  8
0
 10
51.92489770
 20
-27.13931362
  0
VERTEX
  8
0
 10
51.50148926
 20
-27.45593262
  0
VERTEX
  8
0
 10
51.11091270
 20
-27.81091270
  0
VERTEX
  8
0
 10
50.75593262
 20
-28.20148926
  0
VERTEX
  8
0
 10
50.43931362
 20
-28.62489770
  0
VERTEX
  8
0
 10
50.16382030
 20
-29.07837341
  0
VERTEX
  8
0
 10
49.93221726
 20
-29.55915179
  0
VERTEX
  8
0
 10
49.74726911
 20
-30.06446824
  0
VERTEX
  8
0
 10
49.61174045
 20
-30.59155816
  0
VERTEX
  8
0
 10
49.52839588
 20
-31.13765695
  0
VERTEX
  8
0
 10
49.50000000
 20
-31.70000000
  0
VERTEX
  8
0
 10
49.52839588
 20
-32.26234305
  0
VERTEX
  8
0
 10
49.61174045
 20
-32.80844184
  0
VERTEX
  8
0
 10
49.74726911
 20
-33.33553176
  0
VERTEX
  8
0
 10
49.93221726
 20
-33.84084821
  0
VERTEX
  8
0
 10
50.16382030
 20
-34.32162659
  0
VERTEX
  8
0
 10
50.43931362
 20
-34.77510230
  0
VERTEX
  8
0
 10
50.75593262
 20
-35.19851074
  0
VERTEX
  8
0
 10
51.11091270
 20
-35.58908730
  0
VERTEX
  8
0
 10
51.50148926
 20
-35.94406738
  0
VERTEX
  8
0
 10
51.92489770
 20
-36.26068638
  0
VERTEX
  8
0
 10
52.37837341
 20
-36.53617970
  0
VERTEX
  8
0
 10
52.85915179
 20
-36.76778274
  0
VERTEX
  8
0
 10
53.36446824
 20
-36.95273089
  0
VERTEX
  8
0
 10
53.89155816
 20
-37.08825955
  0
VERTEX
  8
0
 10
54.43765695
 20
-37.17160412
  0
VERTEX
  8
0
 10
55.00000000
 20
-37.20000000
  0
VERTEX
  8
0
 10
55.56234305
 20
-37.17160412
  0
VERTEX
  8
0
 10
56.10844184
 20
-37.08825955
  0
VERTEX
  8
0
 10
56.63553176
 20
-36.95273089
  0
VERTEX
  8
0
 10
57.14084821
 20
-36.76778274
  0
VERTEX
  8
0
 10
57.62162659
 20
-36.53617970
  0
VERTEX
  8
0
 10
58.07510230
 20
-36.26068638
  0
VERTEX
  8
0
 10
58.49851074
 20
-35.94406738
  0
VERTEX
  8
0
 10
58.88908730
 20
-35.58908730
  0
VERTEX
  8
0
 10
59.24406738
 20
-35.19851074
  0
VERTEX
  8
0
 10
59.56068638
 20
-34.77510230
  0
VERTEX
  8
0
 10
59.83617970
 20
-34.32162659
  0
VERTEX
  8
0
 10
60.06778274
 20
-33.84084821
  0
VERTEX
  8
0
 10
60.25273089
 20
-33.33553176
  0
VERTEX
  8
0
 10
60.38825955
 20
-32.80844184
  0
VERTEX
  8
0
 10
60.47160412
 20
-32.26234305
  0
VERTEX
  8
0
 10
60.50000000
 20
-31.70000000
  0
SEQEND
  0
POLYLINE
  8
Capa por Defecto
 66
   1
 39
0.000000
 70
    0
  0
VERTEX
  8
0
 10
57.59855610
 20
-20.70000000
  0
VERTEX
  8
0
 10
57.59860646
 20
-20.69991482
  0
SEQEND
  0
POLYLINE
  8
Capa por Defecto
 66
   1
 39
0.000000
 70
    0
  0
VERTEX
  8
0
 10
57.59860646
 20
-20.69991482
  0
VERTEX
  8
0
 10
57.59850000
 20
-20.70000000
  0
SEQEND
  0
POLYLINE
  8
Capa por Defecto
 66
   1
 39
0.000000
 70
    1
  0
VERTEX
  8
0
 10
-155.55000000
 20
-31.70000000
  0
VERTEX
  8
0
 10
-155.56229628
 20
-31.21370425
  0
VERTEX
  8
0
 10
-155.59878928
 20
-30.73379240
  0
VERTEX
  8
0
 10
-155.65888525
 20
-30.26085819
  0
VERTEX
  8
0
 10
-155.74199041
 20
-29.79549539
  0
VERTEX
  8
0
 10
-155.84751102
 20
-29.33829776
  0
VERTEX
  8
0
 10
-155.97485330
 20
-28.88985907
  0
VERTEX
  8
0
 10
-156.12342349
 20
-28.45077308
  0
VERTEX
  8
0
 10
-156.29262784
 20
-28.02163353
  0
VERTEX
  8
0
 10
-156.48187259
 20
-27.60303421
  0
VERTEX
  8
0
 10
-156.69056397
 20
-27.19556886
  0
VERTEX
  8
0
 10
-156.91810822
 20
-26.79983125
  0
VERTEX
  8
0
 10
-157.16391158
 20
-26.41641514
  0
VERTEX
  8
0
 10
-157.42738029
 20
-26.04591429
  0
VERTEX
  8
0
 10
-157.70792060
 20
-25.68892246
  0
VERTEX
  8
0
 10
-158.00493872
 20
-25.34603342
  0
VERTEX
  8
0
 10
-158.31784092
 20
-25.01784092
  0
VERTEX
  8
0
 10
-158.64603342
 20
-24.70493872
  0
VERTEX
  8
0
 10
-158.98892246
 20
-24.40792060
  0
VERTEX
  8
0
 10
-159.34591429
 20
-24.12738029
  0
VERTEX
  8
0
 10
-159.71641514
 20
-23.86391158
  0
VERTEX
  8
0
 10
-160.09983125
 20
-23.61810822
  0
VERTEX
  8
0
 10
-160.49556886
 20
-23.39056397
  0
VERTEX
  8
0
 10
-160.90303421
 20
-23.18187259
  0
VERTEX
  8
0
 10
-161.32163353
 20
-22.99262784
  0
VERTEX
  8
0
 10
-161.75077308
 20
-22.82342349
  0
VERTEX
  8
0
 10
-162.18985907
 20
-22.67485330
  0
VERTEX
  8
0
 10
-162.63829776
 20
-22.54751102
  0
VERTEX
  8
0
 10
-163.09549539
 20
-22.44199041
  0
VERTEX
  8
0
 10
-163.56085819
 20
-22.35888525
  0
VERTEX
  8
0
 10
-164.03379240
 20
-22.29878928
  0
VERTEX
  8
0
 10
-164.51370425
 20
-22.26229628
  0
VERTEX
  8
0
 10
-165.00000000
 20
-22.25000000
  0
VERTEX
  8
0
 10
-165.48629575
 20
-22.26229628
  0
VERTEX
  8
0
 10
-165.96620760
 20
-22.29878928
  0
VERTEX
  8
0
 10
-166.43914181
 20
-22.35888525
  0
VERTEX
  8
0
 10
-166.90450461
 20
-22.44199041
  0
VERTEX
  8
0
 10
-167.36170224
 20
-22.54751102
  0
VERTEX
  8
0
 10
-167.81014093
 20
-22.67485330
  0
VERTEX
  8
0
 10
-168.24922692
 20
-22.82342349
  0
VERTEX
  8
0
 10
-168.67836647
 20
-22.99262784
  0
VERTEX
  8
0
 10
-169.09696579
 20
-23.18187259
  0
VERTEX
  8
0
 10
-169.50443114
 20
-23.39056397
  0
VERTEX
  8
0
 10
-169.90016875
 20
-23.61810822
  0
VERTEX
  8
0
 10
-170.28358486
 20
-23.86391158
  0
VERTEX
  8
0
 10
-170.65408571
 20
-24.12738029
  0
VERTEX
  8
0
 10
-171.01107754
 20
-24.40792060
  0
VERTEX
  8
0
 10
-171.35396658
 20
-24.70493872
  0
VERTEX
  8
0
 10
-171.68215908
 20
-25.01784092
  0
VERTEX
  8
0
 10
-171.99506128
 20
-25.34603342
  0
VERTEX
  8
0
 10
-172.29207940
 20
-25.68892246
  0
VERTEX
  8
0
 10
-172.57261971
 20
-26.04591429
  0
VERTEX
  8
0
 10
-172.83608842
 20
-26.41641514
  0
VERTEX
  8
0
 10
-173.08189178
 20
-26.79983125
  0
VERTEX
  8
0
 10
-173.30943603
 20
-27.19556886
  0
VERTEX
  8
0
 10
-173.51812741
 20
-27.60303421
  0
VERTEX
  8
0
 10
-173.70737216
 20
-28.02163353
  0
VERTEX
  8
0
 10
-173.87657651
 20
-28.45077308
  0
VERTEX
  8
0
 10
-174.02514670
 20
-28.88985907
  0
VERTEX
  8
0
 10
-174.15248898
 20
-29.33829776
  0
VERTEX
  8
0
 10
-174.25800959
 20
-29.79549539
  0
VERTEX
  8
0
 10
-174.34111475
 20
-30.26085819
  0
VERTEX
  8
0
 10
-174.40121072
 20
-30.73379240
  0
VERTEX
  8
0
 10
-174.43770372
 20
-31.21370425
  0
VERTEX
  8
0
 10
-174.45000000
 20
-31.70000000
  0
VERTEX
  8
0
 10
-174.43770372
 20
-32.18629575
  0
VERTEX
  8
0
 10
-174.40121072
 20
-32.66620760
  0
VERTEX
  8
0
 10
-174.34111475
 20
-33.13914181
  0
VERTEX
  8
0
 10
-174.25800959
 20
-33.60450461
  0
VERTEX
  8
0
 10
-174.15248898
 20
-34.06170224
  0
VERTEX
  8
0
 10
-174.02514670
 20
-34.51014093
  0
VERTEX
  8
0
 10
-173.87657651
 20
-34.94922692
  0
VERTEX
  8
0
 10
-173.70737216
 20
-35.37836647
  0
VERTEX
  8
0
 10
-173.51812741
 20
-35.79696579
  0
VERTEX
  8
0
 10
-173.30943603
 20
-36.20443114
  0
VERTEX
  8
0
 10
-173.08189178
 20
-36.60016875
  0
VERTEX
  8
0
 10
-172.83608842
 20
-36.98358486
  0
VERTEX
  8
0
 10
-172.57261971
 20
-37.35408571
  0
VERTEX
  8
0
 10
-172.29207940
 20
-37.71107754
  0
VERTEX
  8
0
 10
-171.99506128
 20
-38.05396658
  0
VERTEX
  8
0
 10
-171.68215908
 20
-38.38215908
  0
VERTEX
  8
0
 10
-171.35396658
 20
-38.69506128
  0
VERTEX
  8
0
 10
-171.01107754
 20
-38.99207940
  0
VERTEX
  8
0
 10
-170.65408571
 20
-39.27261971
  0
VERTEX
  8
0
 10
-170.28358486
 20
-39.53608842
  0
VERTEX
  8
0
 10
-169.90016875
 20
-39.78189178
  0
VERTEX
  8
0
 10
-169.50443114
 20
-40.00943603
  0
VERTEX
  8
0
 10
-169.09696579
 20
-40.21812741
  0
VERTEX
  8
0
 10
-168.67836647
 20
-40.40737216
  0
VERTEX
  8
0
 10
-168.24922692
 20
-40.57657651
  0
VERTEX
  8
0
 10
-167.81014093
 20
-40.72514670
  0
VERTEX
  8
0
 10
-167.36170224
 20
-40.85248898
  0
VERTEX
  8
0
 10
-166.90450461
 20
-40.95800959
  0
VERTEX
  8
0
 10
-166.43914181
 20
-41.04111475
  0
VERTEX
  8
0
 10
-165.96620760
 20
-41.10121072
  0
VERTEX
  8
0
 10
-165.48629575
 20
-41.13770372
  0
VERTEX
  8
0
 10
-165.00000000
 20
-41.15000000
  0
VERTEX
  8
0
 10
-164.51370425
 20
-41.13770372
  0
VERTEX
  8
0
 10
-164.03379240
 20
-41.10121072
  0
VERTEX
  8
0
 10
-163.56085819
 20
-41.04111475
  0
VERTEX
  8
0
 10
-163.09549539
 20
-40.95800959
  0
VERTEX
  8
0
 10
-162.63829776
 20
-40.85248898
  0
VERTEX
  8
0
 10
-162.18985907
 20
-40.72514670
  0
VERTEX
  8
0
 10
-161.75077308
 20
-40.57657651
  0
VERTEX
  8
0
 10
-161.32163353
 20
-40.40737216
  0
VERTEX
  8
0
 10
-160.90303421
 20
-40.21812741
  0
VERTEX
  8
0
 10
-160.49556886
 20
-40.00943603
  0
VERTEX
  8
0
 10
-160.09983125
 20
-39.78189178
  0
VERTEX
  8
0
 10
-159.71641514
 20
-39.53608842
  0
VERTEX
  8
0
 10
-159.34591429
 20
-39.27261971
  0
VERTEX
  8
0
 10
-158.98892246
 20
-38.99207940
  0
VERTEX
  8
0
 10
-158.64603342
 20
-38.69506128
  0
VERTEX
  8
0
 10
-158.31784092
 20
-38.38215908
  0
VERTEX
  8
0
 10
-158.00493872
 20
-38.05396658
  0
VERTEX
  8
0
 10
-157.70792060
 20
-37.71107754
  0
VERTEX
  8
0
 10
-157.42738029
 20
-37.35408571
  0
VERTEX
  8
0
 10
-157.16391158
 20
-36.98358486
  0
VERTEX
  8
0
 10
-156.91810822
 20
-36.60016875
  0
VERTEX
  8
0
 10
-156.69056397
 20
-36.20443114
  0
VERTEX
  8
0
 10
-156.48187259
 20
-35.79696579
  0
VERTEX
  8
0
 10
-156.29262784
 20
-35.37836647
  0
VERTEX
  8
0
 10
-156.12342349
 20
-34.94922692
  0
VERTEX
  8
0
 10
-155.97485330
 20
-34.51014093
  0
VERTEX
  8
0
 10
-155.84751102
 20
-34.06170224
  0
VERTEX
  8
0
 10
-155.74199041
 20
-33.60450461
  0
VERTEX
  8
0
 10
-155.65888525
 20
-33.13914181
  0
VERTEX
  8
0
 10
-155.59878928
 20
-32.66620760
  0
VERTEX
  8
0
 10
-155.56229628
 20
-32.18629575
  0
VERTEX
  8
0
 10
-155.55000000
 20
-31.70000000
  0
SEQEND
  0
POLYLINE
  8
Capa por Defecto
 66
   1
 39
0.000000
 70
    1
  0
VERTEX
  8
0
 10
-159.50000000
 20
-31.70000000
  0
VERTEX
  8
0
 10
-159.52839588
 20
-31.13765695
  0
VERTEX
  8
0
 10
-159.61174045
 20
-30.59155816
  0
VERTEX
  8
0
 10
-159.74726911
 20
-30.06446824
  0
VERTEX
  8
0
 10
-159.93221726
 20
-29.55915179
  0
VERTEX
  8
0
 10
-160.16382030
 20
-29.07837341
  0
VERTEX
  8
0
 10
-160.43931362
 20
-28.62489770
  0
VERTEX
  8
0
 10
-160.75593262
 20
-28.20148926
  0
VERTEX
  8
0
 10
-161.11091270
 20
-27.81091270
  0
VERTEX
  8
0
 10
-161.50148926
 20
-27.45593262
  0
VERTEX
  8
0
 10
-161.92489770
 20
-27.13931362
  0
VERTEX
  8
0
 10
-162.37837341
 20
-26.86382030
  0
VERTEX
  8
0
 10
-162.85915179
 20
-26.63221726
  0
VERTEX
  8
0
 10
-163.36446824
 20
-26.44726911
  0
VERTEX
  8
0
 10
-163.89155816
 20
-26.31174045
  0
VERTEX
  8
0
 10
-164.43765695
 20
-26.22839588
  0
VERTEX
  8
0
 10
-165.00000000
 20
-26.20000000
  0
VERTEX
  8
0
 10
-165.56234305
 20
-26.22839588
  0
VERTEX
  8
0
 10
-166.10844184
 20
-26.31174045
  0
VERTEX
  8
0
 10
-166.63553176
 20
-26.44726911
  0
VERTEX
  8
0
 10
-167.14084821
 20
-26.63221726
  0
VERTEX
  8
0
 10
-167.62162659
 20
-26.86382030
  0
VERTEX
  8
0
 10
-168.07510230
 20
-27.13931362
  0
VERTEX
  8
0
 10
-168.49851074
 20
-27.45593262
  0
VERTEX
  8
0
 10
-168.88908730
 20
-27.81091270
  0
VERTEX
  8
0
 10
-169.24406738
 20
-28.20148926
  0
VERTEX
  8
0
 10
-169.56068638
 20
-28.62489770
  0
VERTEX
  8
0
 10
-169.83617970
 20
-29.07837341
  0
VERTEX
  8
0
 10
-170.06778274
 20
-29.55915179
  0
VERTEX
  8
0
 10
-170.25273089
 20
-30.06446824
  0
VERTEX
  8
0
 10
-170.38825955
 20
-30.59155816
  0
VERTEX
  8
0
 10
-170.47160412
 20
-31.13765695
  0
VERTEX
  8
0
 10
-170.50000000
 20
-31.70000000
  0
VERTEX
  8
0
 10
-170.47160412
 20
-32.26234305
  0
VERTEX
  8
0
 10
-170.38825955
 20
-32.80844184
  0
VERTEX
  8
0
 10
-170.25273089
 20
-33.33553176
  0
VERTEX
  8
0
 10
-170.06778274
 20
-33.84084821
  0
VERTEX
  8
0
 10
-169.83617970
 20
-34.32162659
  0
VERTEX
  8
0
 10
-169.56068638
 20
-34.77510230
  0
VERTEX
  8
0
 10
-169.24406738
 20
-35.19851074
  0
VERTEX
  8
0
 10
-168.88908730
 20
-35.58908730
  0
VERTEX
  8
0
 10
-168.49851074
 20
-35.94406738
  0
VERTEX
  8
0
 10
-168.07510230
 20
-36.26068638
  0
VERTEX
  8
0
 10
-167.62162659
 20
-36.53617970
  0
VERTEX
  8
0
 10
-167.14084821
 20
-36.76778274
  0
VERTEX
  8
0
 10
-166.63553176
 20
-36.95273089
  0
VERTEX
  8
0
 10
-166.10844184
 20
-37.08825955
  0
VERTEX
  8
0
 10
-165.56234305
 20
-37.17160412
  0
VERTEX
  8
0
 10
-165.00000000
 20
-37.20000000
  0
VERTEX
  8
0
 10
-164.43765695
 20
-37.17160412
  0
VERTEX
  8
0
 10
-163.89155816
 20
-37.08825955
  0
VERTEX
  8
0
 10
-163.36446824
 20
-36.95273089
  0
VERTEX
  8
0
 10
-162.85915179
 20
-36.76778274
  0
VERTEX
  8
0
 10
-162.37837341
 20
-36.53617970
  0
VERTEX
  8
0
 10
-161.92489770
 20
-36.26068638
  0
VERTEX
  8
0
 10
-161.50148926
 20
-35.94406738
  0
VERTEX
  8
0
 10
-161.11091270
 20
-35.58908730
  0
VERTEX
  8
0
 10
-160.75593262
 20
-35.19851074
  0
VERTEX
  8
0
 10
-160.43931362
 20
-34.77510230
  0
VERTEX
  8
0
 10
-160.16382030
 20
-34.32162659
  0
VERTEX
  8
0
 10
-159.93221726
 20
-33.84084821
  0
VERTEX
  8
0
 10
-159.74726911
 20
-33.33553176
  0
VERTEX
  8
0
 10
-159.61174045
 20
-32.80844184
  0
VERTEX
  8
0
 10
-159.52839588
 20
-32.26234305
  0
VERTEX
  8
0
 10
-159.50000000
 20
-31.70000000
  0
SEQEND
  0
POLYLINE
  8
Capa por Defecto
 66
   1
 39
0.000000
 70
    0
  0
VERTEX
  8
0
 10
-162.40144390
 20
-20.70000000
  0
VERTEX
  8
0
 10
-162.40139354
 20
-20.69991482
  0
SEQEND
  0
POLYLINE
  8
Capa por Defecto
 66
   1
 39
0.000000
 70
    0
  0
VERTEX
  8
0
 10
-162.40139354
 20
-20.69991482
  0
VERTEX
  8
0
 10
-162.40150000
 20
-20.70000000
  0
SEQEND
  0
POLYLINE
  8
Capa por Defecto
 66
   1
 39
0.000000
 70
    0
  0
VERTEX
  8
0
 10
-162.40144390
 20
-20.70000000
  0
VERTEX
  8
0
 10
-162.40139354
 20
-20.69991482
  0
SEQEND
  0
POLYLINE
  8
Capa por Defecto
 66
   1
 39
0.000000
 70
    0
  0
VERTEX
  8
0
 10
-162.40139354
 20
-20.69991482
  0
VERTEX
  8
0
 10
-162.40150000
 20
-20.70000000
  0
SEQEND
  0
POLYLINE
  8
Capa por Defecto
 66
   1
 39
0.000000
 70
    1
  0
VERTEX
  8
0
 10
-159.50000000
 20
31.70000000
  0
VERTEX
  8
0
 10
-159.52839588
 20
32.26234305
  0
VERTEX
  8
0
 10
-159.61174045
 20
32.80844184
  0
VERTEX
  8
0
 10
-159.74726911
 20
33.33553176
  0
VERTEX
  8
0
 10
-159.93221726
 20
33.84084821
  0
VERTEX
  8
0
 10
-160.16382030
 20
34.32162659
  0
VERTEX
  8
0
 10
-160.43931362
 20
34.77510230
  0
VERTEX
  8
0
 10
-160.75593262
 20
35.19851074
  0
VERTEX
  8
0
 10
-161.11091270
 20
35.58908730
  0
VERTEX
  8
0
 10
-161.50148926
 20
35.94406738
  0
VERTEX
  8
0
 10
-161.92489770
 20
36.26068638
  0
VERTEX
  8
0
 10
-162.37837341
 20
36.53617970
  0
VERTEX
  8
0
 10
-162.85915179
 20
36.76778274
  0
VERTEX
  8
0
 10
-163.36446824
 20
36.95273089
  0
VERTEX
  8
0
 10
-163.89155816
 20
37.08825955
  0
VERTEX
  8
0
 10
-164.43765695
 20
37.17160412
  0
VERTEX
  8
0
 10
-165.00000000
 20
37.20000000
  0
VERTEX
  8
0
 10
-165.56234305
 20
37.17160412
  0
VERTEX
  8
0
 10
-166.10844184
 20
37.08825955
  0
VERTEX
  8
0
 10
-166.63553176
 20
36.95273089
  0
VERTEX
  8
0
 10
-167.14084821
 20
36.76778274
  0
VERTEX
  8
0
 10
-167.62162659
 20
36.53617970
  0
VERTEX
  8
0
 10
-168.07510230
 20
36.26068638
  0
VERTEX
  8
0
 10
-168.49851074
 20
35.94406738
  0
VERTEX
  8
0
 10
-168.88908730
 20
35.58908730
  0
VERTEX
  8
0
 10
-169.24406738
 20
35.19851074
  0
VERTEX
  8
0
 10
-169.56068638
 20
34.77510230
  0
VERTEX
  8
0
 10
-169.83617970
 20
34.32162659
  0
VERTEX
  8
0
 10
-170.06778274
 20
33.84084821
  0
VERTEX
  8
0
 10
-170.25273089
 20
33.33553176
  0
VERTEX
  8
0
 10
-170.38825955
 20
32.80844184
  0
VERTEX
  8
0
 10
-170.47160412
 20
32.26234305
  0
VERTEX
  8
0
 10
-170.50000000
 20
31.70000000
  0
VERTEX
  8
0
 10
-170.47160412
 20
31.13765695
  0
VERTEX
  8
0
 10
-170.38825955
 20
30.59155816
  0
VERTEX
  8
0
 10
-170.25273089
 20
30.06446824
  0
VERTEX
  8
0
 10
-170.06778274
 20
29.55915179
  0
VERTEX
  8
0
 10
-169.83617970
 20
29.07837341
  0
VERTEX
  8
0
 10
-169.56068638
 20
28.62489770
  0
VERTEX
  8
0
 10
-169.24406738
 20
28.20148926
  0
VERTEX
  8
0
 10
-168.88908730
 20
27.81091270
  0
VERTEX
  8
0
 10
-168.49851074
 20
27.45593262
  0
VERTEX
  8
0
 10
-168.07510230
 20
27.13931362
  0
VERTEX
  8
0
 10
-167.62162659
 20
26.86382030
  0
VERTEX
  8
0
 10
-167.14084821
 20
26.63221726
  0
VERTEX
  8
0
 10
-166.63553176
 20
26.44726911
  0
VERTEX
  8
0
 10
-166.10844184
 20
26.31174045
  0
VERTEX
  8
0
 10
-165.56234305
 20
26.22839588
  0
VERTEX
  8
0
 10
-165.00000000
 20
26.20000000
  0
VERTEX
  8
0
 10
-164.43765695
 20
26.22839588
  0
VERTEX
  8
0
 10
-163.89155816
 20
26.31174045
  0
VERTEX
  8
0
 10
-163.36446824
 20
26.44726911
  0
VERTEX
  8
0
 10
-162.85915179
 20
26.63221726
  0
VERTEX
  8
0
 10
-162.37837341
 20
26.86382030
  0
VERTEX
  8
0
 10
-161.92489770
 20
27.13931362
  0
VERTEX
  8
0
 10
-161.50148926
 20
27.45593262
  0
VERTEX
  8
0
 10
-161.11091270
 20
27.81091270
  0
VERTEX
  8
0
 10
-160.75593262
 20
28.20148926
  0
VERTEX
  8
0
 10
-160.43931362
 20
28.62489770
  0
VERTEX
  8
0
 10
-160.16382030
 20
29.07837341
  0
VERTEX
  8
0
 10
-159.93221726
 20
29.55915179
  0
VERTEX
  8
0
 10
-159.74726911
 20
30.06446824
  0
VERTEX
  8
0
 10
-159.61174045
 20
30.59155816
  0
VERTEX
  8
0
 10
-159.52839588
 20
31.13765695
  0
VERTEX
  8
0
 10
-159.50000000
 20
31.70000000
  0
SEQEND
  0
POLYLINE
  8
Capa por Defecto
 66
   1
 39
0.000000
 70
    0
  0
VERTEX
  8
0
 10
-162.40144390
 20
42.70000000
  0
VERTEX
  8
0
 10
-162.40139354
 20
42.70008518
  0
SEQEND
  0
POLYLINE
  8
Capa por Defecto
 66
   1
 39
0.000000
 70
    0
  0
VERTEX
  8
0
 10
-162.40139354
 20
42.70008518
  0
VERTEX
  8
0
 10
-162.40150000
 20
42.70000000
  0
SEQEND
  0
POLYLINE
  8
Capa por Defecto
 66
   1
 39
0.000000
 70
    0
  0
VERTEX
  8
0
 10
-162.40144390
 20
42.70000000
  0
VERTEX
  8
0
 10
-162.40139354
 20
42.70008518
  0
SEQEND
  0
POLYLINE
  8
Capa por Defecto
 66
   1
 39
0.000000
 70
    0
  0
VERTEX
  8
0
 10
-162.40139354
 20
42.70008518
  0
VERTEX
  8
0
 10
-162.40150000
 20
42.70000000
  0
SEQEND
  0
POLYLINE
  8
Capa por Defecto
 66
   1
 39
0.000000
 70
    1
  0
VERTEX
  8
0
 10
-104.50000000
 20
31.70000000
  0
VERTEX
  8
0
 10
-104.52839588
 20
32.26234305
  0
VERTEX
  8
0
 10
-104.61174045
 20
32.80844184
  0
VERTEX
  8
0
 10
-104.74726911
 20
33.33553176
  0
VERTEX
  8
0
 10
-104.93221726
 20
33.84084821
  0
VERTEX
  8
0
 10
-105.16382030
 20
34.32162659
  0
VERTEX
  8
0
 10
-105.43931362
 20
34.77510230
  0
VERTEX
  8
0
 10
-105.75593262
 20
35.19851074
  0
VERTEX
  8
0
 10
-106.11091270
 20
35.58908730
  0
VERTEX
  8
0
 10
-106.50148926
 20
35.94406738
  0
VERTEX
  8
0
 10
-106.92489770
 20
36.26068638
  0
VERTEX
  8
0
 10
-107.37837341
 20
36.53617970
  0
VERTEX
  8
0
 10
-107.85915179
 20
36.76778274
  0
VERTEX
  8
0
 10
-108.36446824
 20
36.95273089
  0
VERTEX
  8
0
 10
-108.89155816
 20
37.08825955
  0
VERTEX
  8
0
 10
-109.43765695
 20
37.17160412
  0
VERTEX
  8
0
 10
-110.00000000
 20
37.20000000
  0
VERTEX
  8
0
 10
-110.56234305
 20
37.17160412
  0
VERTEX
  8
0
 10
-111.10844184
 20
37.08825955
  0
VERTEX
  8
0
 10
-111.63553176
 20
36.95273089
  0
VERTEX
  8
0
 10
-112.14084821
 20
36.76778274
  0
VERTEX
  8
0
 10
-112.62162659
 20
36.53617970
  0
VERTEX
  8
0
 10
-113.07510230
 20
36.26068638
  0
VERTEX
  8
0
 10
-113.49851074
 20
35.94406738
  0
VERTEX
  8
0
 10
-113.88908730
 20
35.58908730
  0
VERTEX
  8
0
 10
-114.24406738
 20
35.19851074
  0
VERTEX
  8
0
 10
-114.56068638
 20
34.77510230
  0
VERTEX
  8
0
 10
-114.83617970
 20
34.32162659
  0
VERTEX
  8
0
 10
-115.06778274
 20
33.84084821
  0
VERTEX
  8
0
 10
-115.25273089
 20
33.33553176
  0
VERTEX
  8
0
 10
-115.38825955
 20
32.80844184
  0
VERTEX
  8
0
 10
-115.47160412
 20
32.26234305
  0
VERTEX
  8
0
 10
-115.50000000
 20
31.70000000
  0
VERTEX
  8
0
 10
-115.47160412
 20
31.13765695
  0
VERTEX
  8
0
 10
-115.38825955
 20
30.59155816
  0
VERTEX
  8
0
 10
-115.25273089
 20
30.06446824
  0
VERTEX
  8
0
 10
-115.06778274
 20
29.55915179
  0
VERTEX
  8
0
 10
-114.83617970
 20
29.07837341
  0
VERTEX
  8
0
 10
-114.56068638
 20
28.62489770
  0
VERTEX
  8
0
 10
-114.24406738
 20
28.20148926
  0
VERTEX
  8
0
 10
-113.88908730
 20
27.81091270
  0
VERTEX
  8
0
 10
-113.49851074
 20
27.45593262
  0
VERTEX
  8
0
 10
-113.07510230
 20
27.13931362
  0
VERTEX
  8
0
 10
-112.62162659
 20
26.86382030
  0
VERTEX
  8
0
 10
-112.14084821
 20
26.63221726
  0
VERTEX
  8
0
 10
-111.63553176
 20
26.44726911
  0
VERTEX
  8
0
 10
-111.10844184
 20
26.31174045
  0
VERTEX
  8
0
 10
-110.56234305
 20
26.22839588
  0
VERTEX
  8
0
 10
-110.00000000
 20
26.20000000
  0
VERTEX
  8
0
 10
-109.43765695
 20
26.22839588
  0
VERTEX
  8
0
 10
-108.89155816
 20
26.31174045
  0
VERTEX
  8
0
 10
-108.36446824
 20
26.44726911
  0
VERTEX
  8
0
 10
-107.85915179
 20
26.63221726
  0
VERTEX
  8
0
 10
-107.37837341
 20
26.86382030
  0
VERTEX
  8
0
 10
-106.92489770
 20
27.13931362
  0
VERTEX
  8
0
 10
-106.50148926
 20
27.45593262
  0
VERTEX
  8
0
 10
-106.11091270
 20
27.81091270
  0
VERTEX
  8
0
 10
-105.75593262
 20
28.20148926
  0
VERTEX
  8
0
 10
-105.43931362
 20
28.62489770
  0
VERTEX
  8
0
 10
-105.16382030
 20
29.07837341
  0
VERTEX
  8
0
 10
-104.93221726
 20
29.55915179
  0
VERTEX
  8
0
 10
-104.74726911
 20
30.06446824
  0
VERTEX
  8
0
 10
-104.61174045
 20
30.59155816
  0
VERTEX
  8
0
 10
-104.52839588
 20
31.13765695
  0
VERTEX
  8
0
 10
-104.50000000
 20
31.70000000
  0
SEQEND
  0
POLYLINE
  8
Capa por Defecto
 66
   1
 39
0.000000
 70
    0
  0
VERTEX
  8
0
 10
-107.40144390
 20
42.70000000
  0
VERTEX
  8
0
 10
-107.40139354
 20
42.70008518
  0
SEQEND
  0
POLYLINE
  8
Capa por Defecto
 66
   1
 39
0.000000
 70
    0
  0
VERTEX
  8
0
 10
-107.40139354
 20
42.70008518
  0
VERTEX
  8
0
 10
-107.40150000
 20
42.70000000
  0
SEQEND
  0
POLYLINE
  8
Capa por Defecto
 66
   1
 39
0.000000
 70
    0
  0
VERTEX
  8
0
 10
-107.40144390
 20
42.70000000
  0
VERTEX
  8
0
 10
-107.40139354
 20
42.70008518
  0
SEQEND
  0
POLYLINE
  8
Capa por Defecto
 66
   1
 39
0.000000
 70
    0
  0
VERTEX
  8
0
 10
-107.40139354
 20
42.70008518
  0
VERTEX
  8
0
 10
-107.40150000
 20
42.70000000
  0
SEQEND
  0
POLYLINE
  8
Capa por Defecto
 66
   1
 39
0.000000
 70
    1
  0
VERTEX
  8
0
 10
-49.50000000
 20
31.70000000
  0
VERTEX
  8
0
 10
-49.52839588
 20
32.26234305
  0
VERTEX
  8
0
 10
-49.61174045
 20
32.80844184
  0
VERTEX
  8
0
 10
-49.74726911
 20
33.33553176
  0
VERTEX
  8
0
 10
-49.93221726
 20
33.84084821
  0
VERTEX
  8
0
 10
-50.16382030
 20
34.32162659
  0
VERTEX
  8
0
 10
-50.43931362
 20
34.77510230
  0
VERTEX
  8
0
 10
-50.75593262
 20
35.19851074
  0
VERTEX
  8
0
 10
-51.11091270
 20
35.58908730
  0
VERTEX
  8
0
 10
-51.50148926
 20
35.94406738
  0
VERTEX
  8
0
 10
-51.92489770
 20
36.26068638
  0
VERTEX
  8
0
 10
-52.37837341
 20
36.53617970
  0
VERTEX
  8
0
 10
-52.85915179
 20
36.76778274
  0
VERTEX
  8
0
 10
-53.36446824
 20
36.95273089
  0
VERTEX
  8
0
 10
-53.89155816
 20
37.08825955
  0
VERTEX
  8
0
 10
-54.43765695
 20
37.17160412
  0
VERTEX
  8
0
 10
-55.00000000
 20
37.20000000
  0
VERTEX
  8
0
 10
-55.56234305
 20
37.17160412
  0
VERTEX
  8
0
 10
-56.10844184
 20
37.08825955
  0
VERTEX
  8
0
 10
-56.63553176
 20
36.95273089
  0
VERTEX
  8
0
 10
-57.14084821
 20
36.76778274
  0
VERTEX
  8
0
 10
-57.62162659
 20
36.53617970
  0
VERTEX
  8
0
 10
-58.07510230
 20
36.26068638
  0
VERTEX
  8
0
 10
-58.49851074
 20
35.94406738
  0
VERTEX
  8
0
 10
-58.88908730
 20
35.58908730
  0
VERTEX
  8
0
 10
-59.24406738
 20
35.19851074
  0
VERTEX
  8
0
 10
-59.56068638
 20
34.77510230
  0
VERTEX
  8
0
 10
-59.83617970
 20
34.32162659
  0
VERTEX
  8
0
 10
-60.06778274
 20
33.84084821
  0
VERTEX
  8
0
 10
-60.25273089
 20
33.33553176
  0
VERTEX
  8
0
 10
-60.38825955
 20
32.80844184
  0
VERTEX
  8
0
 10
-60.47160412
 20
32.26234305
  0
VERTEX
  8
0
 10
-60.50000000
 20
31.70000000
  0
VERTEX
  8
0
 10
-60.47160412
 20
31.13765695
  0
VERTEX
  8
0
 10
-60.38825955
 20
30.59155816
  0
VERTEX
  8
0
 10
-60.25273089
 20
30.06446824
  0
VERTEX
  8
0
 10
-60.06778274
 20
29.55915179
  0
VERTEX
  8
0
 10
-59.83617970
 20
29.07837341
  0
VERTEX
  8
0
 10
-59.56068638
 20
28.62489770
  0
VERTEX
  8
0
 10
-59.24406738
 20
28.20148926
  0
VERTEX
  8
0
 10
-58.88908730
 20
27.81091270
  0
VERTEX
  8
0
 10
-58.49851074
 20
27.45593262
  0
VERTEX
  8
0
 10
-58.07510230
 20
27.13931362
  0
VERTEX
  8
0
 10
-57.62162659
 20
26.86382030
  0
VERTEX
  8
0
 10
-57.14084821
 20
26.63221726
  0
VERTEX
  8
0
 10
-56.63553176
 20
26.44726911
  0
VERTEX
  8
0
 10
-56.10844184
 20
26.31174045
  0
VERTEX
  8
0
 10
-55.56234305
 20
26.22839588
  0
VERTEX
  8
0
 10
-55.00000000
 20
26.20000000
  0
VERTEX
  8
0
 10
-54.43765695
 20
26.22839588
  0
VERTEX
  8
0
 10
-53.89155816
 20
26.31174045
  0
VERTEX
  8
0
 10
-53.36446824
 20
26.44726911
  0
VERTEX
  8
0
 10
-52.85915179
 20
26.63221726
  0
VERTEX
  8
0
 10
-52.37837341
 20
26.86382030
  0
VERTEX
  8
0
 10
-51.92489770
 20
27.13931362
  0
VERTEX
  8
0
 10
-51.50148926
 20
27.45593262
  0
VERTEX
  8
0
 10
-51.11091270
 20
27.81091270
  0
VERTEX
  8
0
 10
-50.75593262
 20
28.20148926
  0
VERTEX
  8
0
 10
-50.43931362
 20
28.62489770
  0
VERTEX
  8
0
 10
-50.16382030
 20
29.07837341
  0
VERTEX
  8
0
 10
-49.93221726
 20
29.55915179
  0
VERTEX
  8
0
 10
-49.74726911
 20
30.06446824
  0
VERTEX
  8
0
 10
-49.61174045
 20
30.59155816
  0
VERTEX
  8
0
 10
-49.52839588
 20
31.13765695
  0
VERTEX
  8
0
 10
-49.50000000
 20
31.70000000
  0
SEQEND
  0
POLYLINE
  8
Capa por Defecto
 66
   1
 39
0.000000
 70
    0
  0
VERTEX
  8
0
 10
-52.40144390
 20
42.70000000
  0
VERTEX
  8
0
 10
-52.40139354
 20
42.70008518
  0
SEQEND
  0
POLYLINE
  8
Capa por Defecto
 66
   1
 39
0.000000
 70
    0
  0
VERTEX
  8
0
 10
-52.40139354
 20
42.70008518
  0
VERTEX
  8
0
 10
-52.40150000
 20
42.70000000
  0
SEQEND
  0
POLYLINE
  8
Capa por Defecto
 66
   1
 39
0.000000
 70
    0
  0
VERTEX
  8
0
 10
-52.40144390
 20
42.70000000
  0
VERTEX
  8
0
 10
-52.40139354
 20
42.70008518
  0
SEQEND
  0
POLYLINE
  8
Capa por Defecto
 66
   1
 39
0.000000
 70
    0
  0
VERTEX
  8
0
 10
-52.40139354
 20
42.70008518
  0
VERTEX
  8
0
 10
-52.40150000
 20
42.70000000
  0
SEQEND
  0
POLYLINE
  8
Capa por Defecto
 66
   1
 39
0.000000
 70
    1
  0
VERTEX
  8
0
 10
5.50000000
 20
31.70000000
  0
VERTEX
  8
0
 10
5.47160412
 20
32.26234305
  0
VERTEX
  8
0
 10
5.38825955
 20
32.80844184
  0
VERTEX
  8
0
 10
5.25273089
 20
33.33553176
  0
VERTEX
  8
0
 10
5.06778274
 20
33.84084821
  0
VERTEX
  8
0
 10
4.83617970
 20
34.32162659
  0
VERTEX
  8
0
 10
4.56068638
 20
34.77510230
  0
VERTEX
  8
0
 10
4.24406738
 20
35.19851074
  0
VERTEX
  8
0
 10
3.88908730
 20
35.58908730
  0
VERTEX
  8
0
 10
3.49851074
 20
35.94406738
  0
VERTEX
  8
0
 10
3.07510230
 20
36.26068638
  0
VERTEX
  8
0
 10
2.62162659
 20
36.53617970
  0
VERTEX
  8
0
 10
2.14084821
 20
36.76778274
  0
VERTEX
  8
0
 10
1.63553176
 20
36.95273089
  0
VERTEX
  8
0
 10
1.10844184
 20
37.08825955
  0
VERTEX
  8
0
 10
0.56234305
 20
37.17160412
  0
VERTEX
  8
0
 10
0.00000000
 20
37.20000000
  0
VERTEX
  8
0
 10
-0.56234305
 20
37.17160412
  0
VERTEX
  8
0
 10
-1.10844184
 20
37.08825955
  0
VERTEX
  8
0
 10
-1.63553176
 20
36.95273089
  0
VERTEX
  8
0
 10
-2.14084821
 20
36.76778274
  0
VERTEX
  8
0
 10
-2.62162659
 20
36.53617970
  0
VERTEX
  8
0
 10
-3.07510230
 20
36.26068638
  0
VERTEX
  8
0
 10
-3.49851074
 20
35.94406738
  0
VERTEX
  8
0
 10
-3.88908730
 20
35.58908730
  0
VERTEX
  8
0
 10
-4.24406738
 20
35.19851074
  0
VERTEX
  8
0
 10
-4.56068638
 20
34.77510230
  0
VERTEX
  8
0
 10
-4.83617970
 20
34.32162659
  0
VERTEX
  8
0
 10
-5.06778274
 20
33.84084821
  0
VERTEX
  8
0
 10
-5.25273089
 20
33.33553176
  0
VERTEX
  8
0
 10
-5.38825955
 20
32.80844184
  0
VERTEX
  8
0
 10
-5.47160412
 20
32.26234305
  0
VERTEX
  8
0
 10
-5.50000000
 20
31.70000000
  0
VERTEX
  8
0
 10
-5.47160412
 20
31.13765695
  0
VERTEX
  8
0
 10
-5.38825955
 20
30.59155816
  0
VERTEX
  8
0
 10
-5.25273089
 20
30.06446824
  0
VERTEX
  8
0
 10
-5.06778274
 20
29.55915179
  0
VERTEX
  8
0
 10
-4.83617970
 20
29.07837341
  0
VERTEX
  8
0
 10
-4.56068638
 20
28.62489770
  0
VERTEX
  8
0
 10
-4.24406738
 20
28.20148926
  0
VERTEX
  8
0
 10
-3.88908730
 20
27.81091270
  0
VERTEX
  8
0
 10
-3.49851074
 20
27.45593262
  0
VERTEX
  8
0
 10
-3.07510230
 20
27.13931362
  0
VERTEX
  8
0
 10
-2.62162659
 20
26.86382030
  0
VERTEX
  8
0
 10
-2.14084821
 20
26.63221726
  0
VERTEX
  8
0
 10
-1.63553176
 20
26.44726911
  0
VERTEX
  8
0
 10
-1.10844184
 20
26.31174045
  0
VERTEX
  8
0
 10
-0.56234305
 20
26.22839588
  0
VERTEX
  8
0
 10
0.00000000
 20
26.20000000
  0
VERTEX
  8
0
 10
0.56234305
 20
26.22839588
  0
VERTEX
  8
0
 10
1.10844184
 20
26.31174045
  0
VERTEX
  8
0
 10
1.63553176
 20
26.44726911
  0
VERTEX
  8
0
 10
2.14084821
 20
26.63221726
  0
VERTEX
  8
0
 10
2.62162659
 20
26.86382030
  0
VERTEX
  8
0
 10
3.07510230
 20
27.13931362
  0
VERTEX
  8
0
 10
3.49851074
 20
27.45593262
  0
VERTEX
  8
0
 10
3.88908730
 20
27.81091270
  0
VERTEX
  8
0
 10
4.24406738
 20
28.20148926
  0
VERTEX
  8
0
 10
4.56068638
 20
28.62489770
  0
VERTEX
  8
0
 10
4.83617970
 20
29.07837341
  0
VERTEX
  8
0
 10
5.06778274
 20
29.55915179
  0
VERTEX
  8
0
 10
5.25273089
 20
30.06446824
  0
VERTEX
  8
0
 10
5.38825955
 20
30.59155816
  0
VERTEX
  8
0
 10
5.47160412
 20
31.13765695
  0
VERTEX
  8
0
 10
5.50000000
 20
31.70000000
  0
SEQEND
  0
POLYLINE
  8
Capa por Defecto
 66
   1
 39
0.000000
 70
    0
  0
VERTEX
  8
0
 10
2.59855610
 20
42.70000000
  0
VERTEX
  8
0
 10
2.59860646
 20
42.70008518
  0
SEQEND
  0
POLYLINE
  8
Capa por Defecto
 66
   1
 39
0.000000
 70
    0
  0
VERTEX
  8
0
 10
2.59860646
 20
42.70008518
  0
VERTEX
  8
0
 10
2.59850000
 20
42.70000000
  0
SEQEND
  0
POLYLINE
  8
Capa por Defecto
 66
   1
 39
0.000000
 70
    0
  0
VERTEX
  8
0
 10
2.59855610
 20
42.70000000
  0
VERTEX
  8
0
 10
2.59860646
 20
42.70008518
  0
SEQEND
  0
POLYLINE
  8
Capa por Defecto
 66
   1
 39
0.000000
 70
    0
  0
VERTEX
  8
0
 10
2.59860646
 20
42.70008518
  0
VERTEX
  8
0
 10
2.59850000
 20
42.70000000
  0
SEQEND
  0
POLYLINE
  8
Capa por Defecto
 66
   1
 39
0.000000
 70
    1
  0
VERTEX
  8
0
 10
60.50000000
 20
31.70000000
  0
VERTEX
  8
0
 10
60.47160412
 20
32.26234305
  0
VERTEX
  8
0
 10
60.38825955
 20
32.80844184
  0
VERTEX
  8
0
 10
60.25273089
 20
33.33553176
  0
VERTEX
  8
0
 10
60.06778274
 20
33.84084821
  0
VERTEX
  8
0
 10
59.83617970
 20
34.32162659
  0
VERTEX
  8
0
 10
59.56068638
 20
34.77510230
  0
VERTEX
  8
0
 10
59.24406738
 20
35.19851074
  0
VERTEX
  8
0
 10
58.88908730
 20
35.58908730
  0
VERTEX
  8
0
 10
58.49851074
 20
35.94406738
  0
VERTEX
  8
0
 10
58.07510230
 20
36.26068638
  0
VERTEX
  8
0
 10
57.62162659
 20
36.53617970
  0
VERTEX
  8
0
 10
57.14084821
 20
36.76778274
  0
VERTEX
  8
0
 10
56.63553176
 20
36.95273089
  0
VERTEX
  8
0
 10
56.10844184
 20
37.08825955
  0
VERTEX
  8
0
 10
55.56234305
 20
37.17160412
  0
VERTEX
  8
0
 10
55.00000000
 20
37.20000000
  0
VERTEX
  8
0
 10
54.43765695
 20
37.17160412
  0
VERTEX
  8
0
 10
53.89155816
 20
37.08825955
  0
VERTEX
  8
0
 10
53.36446824
 20
36.95273089
  0
VERTEX
  8
0
 10
52.85915179
 20
36.76778274
  0
VERTEX
  8
0
 10
52.37837341
 20
36.53617970
  0
VERTEX
  8
0
 10
51.92489770
 20
36.26068638
  0
VERTEX
  8
0
 10
51.50148926
 20
35.94406738
  0
VERTEX
  8
0
 10
51.11091270
 20
35.58908730
  0
VERTEX
  8
0
 10
50.75593262
 20
35.19851074
  0
VERTEX
  8
0
 10
50.43931362
 20
34.77510230
  0
VERTEX
  8
0
 10
50.16382030
 20
34.32162659
  0
VERTEX
  8
0
 10
49.93221726
 20
33.84084821
  0
VERTEX
  8
0
 10
49.74726911
 20
33.33553176
  0
VERTEX
  8
0
 10
49.61174045
 20
32.80844184
  0
VERTEX
  8
0
 10
49.52839588
 20
32.26234305
  0
VERTEX
  8
0
 10
49.50000000
 20
31.70000000
  0
VERTEX
  8
0
 10
49.52839588
 20
31.13765695
  0
VERTEX
  8
0
 10
49.61174045
 20
30.59155816
  0
VERTEX
  8
0
 10
49.74726911
 20
30.06446824
  0
VERTEX
  8
0
 10
49.93221726
 20
29.55915179
  0
VERTEX
  8
0
 10
50.16382030
 20
29.07837341
  0
VERTEX
  8
0
 10
50.43931362
 20
28.62489770
  0
VERTEX
  8
0
 10
50.75593262
 20
28.20148926
  0
VERTEX
  8
0
 10
51.11091270
 20
27.81091270
  0
VERTEX
  8
0
 10
51.50148926
 20
27.45593262
  0
VERTEX
  8
0
 10
51.92489770
 20
27.13931362
  0
VERTEX
  8
0
 10
52.37837341
 20
26.86382030
  0
VERTEX
  8
0
 10
52.85915179
 20
26.63221726
  0
VERTEX
  8
0
 10
53.36446824
 20
26.44726911
  0
VERTEX
  8
0
 10
53.89155816
 20
26.31174045
  0
VERTEX
  8
0
 10
54.43765695
 20
26.22839588
  0
VERTEX
  8
0
 10
55.00000000
 20
26.20000000
  0
VERTEX
  8
0
 10
55.56234305
 20
26.22839588
  0
VERTEX
  8
0
 10
56.10844184
 20
26.31174045
  0
VERTEX
  8
0
 10
56.63553176
 20
26.44726911
  0
VERTEX
  8
0
 10
57.14084821
 20
26.63221726
  0
VERTEX
  8
0
 10
57.62162659
 20
26.86382030
  0
VERTEX
  8
0
 10
58.07510230
 20
27.13931362
  0
VERTEX
  8
0
 10
58.49851074
 20
27.45593262
  0
VERTEX
  8
0
 10
58.88908730
 20
27.81091270
  0
VERTEX
  8
0
 10
59.24406738
 20
28.20148926
  0
VERTEX
  8
0
 10
59.56068638
 20
28.62489770
  0
VERTEX
  8
0
 10
59.83617970
 20
29.07837341
  0
VERTEX
  8
0
 10
60.06778274
 20
29.55915179
  0
VERTEX
  8
0
 10
60.25273089
 20
30.06446824
  0
VERTEX
  8
0
 10
60.38825955
 20
30.59155816
  0
VERTEX
  8
0
 10
60.47160412
 20
31.13765695
  0
VERTEX
  8
0
 10
60.50000000
 20
31.70000000
  0
SEQEND
  0
POLYLINE
  8
Capa por Defecto
 66
   1
 39
0.000000
 70
    0
  0
VERTEX
  8
0
 10
57.59855610
 20
42.70000000
  0
VERTEX
  8
0
 10
57.59860646
 20
42.70008518
  0
SEQEND
  0
POLYLINE
  8
Capa por Defecto
 66
   1
 39
0.000000
 70
    0
  0
VERTEX
  8
0
 10
57.59860646
 20
42.70008518
  0
VERTEX
  8
0
 10
57.59850000
 20
42.70000000
  0
SEQEND
  0
POLYLINE
  8
Capa por Defecto
 66
   1
 39
0.000000
 70
    0
  0
VERTEX
  8
0
 10
57.59855610
 20
42.70000000
  0
VERTEX
  8
0
 10
57.59860646
 20
42.70008518
  0
SEQEND
  0
POLYLINE
  8
Capa por Defecto
 66
   1
 39
0.000000
 70
    0
  0
VERTEX
  8
0
 10
57.59860646
 20
42.70008518
  0
VERTEX
  8
0
 10
57.59850000
 20
42.70000000
  0
SEQEND
  0
POLYLINE
  8
Capa por Defecto
 66
   1
 39
0.000000
 70
    0
  0
VERTEX
  8
0
 10
47.89396849
 20
42.58732635
  0
VERTEX
  8
0
 10
47.89386519
 20
42.58725320
  0
SEQEND
  0
POLYLINE
  8
Capa por Defecto
 66
   1
 39
0.000000
 70
    1
  0
VERTEX
  8
0
 10
115.50000000
 20
31.70000000
  0
VERTEX
  8
0
 10
115.47160412
 20
32.26234305
  0
VERTEX
  8
0
 10
115.38825955
 20
32.80844184
  0
VERTEX
  8
0
 10
115.25273089
 20
33.33553176
  0
VERTEX
  8
0
 10
115.06778274
 20
33.84084821
  0
VERTEX
  8
0
 10
114.83617970
 20
34.32162659
  0
VERTEX
  8
0
 10
114.56068638
 20
34.77510230
  0
VERTEX
  8
0
 10
114.24406738
 20
35.19851074
  0
VERTEX
  8
0
 10
113.88908730
 20
35.58908730
  0
VERTEX
  8
0
 10
113.49851074
 20
35.94406738
  0
VERTEX
  8
0
 10
113.07510230
 20
36.26068638
  0
VERTEX
  8
0
 10
112.62162659
 20
36.53617970
  0
VERTEX
  8
0
 10
112.14084821
 20
36.76778274
  0
VERTEX
  8
0
 10
111.63553176
 20
36.95273089
  0
VERTEX
  8
0
 10
111.10844184
 20
37.08825955
  0
VERTEX
  8
0
 10
110.56234305
 20
37.17160412
  0
VERTEX
  8
0
 10
110.00000000
 20
37.20000000
  0
VERTEX
  8
0
 10
109.43765695
 20
37.17160412
  0
VERTEX
  8
0
 10
108.89155816
 20
37.08825955
  0
VERTEX
  8
0
 10
108.36446824
 20
36.95273089
  0
VERTEX
  8
0
 10
107.85915179
 20
36.76778274
  0
VERTEX
  8
0
 10
107.37837341
 20
36.53617970
  0
VERTEX
  8
0
 10
106.92489770
 20
36.26068638
  0
VERTEX
  8
0
 10
106.50148926
 20
35.94406738
  0
VERTEX
  8
0
 10
106.11091270
 20
35.58908730
  0
VERTEX
  8
0
 10
105.75593262
 20
35.19851074
  0
VERTEX
  8
0
 10
105.43931362
 20
34.77510230
  0
VERTEX
  8
0
 10
105.16382030
 20
34.32162659
  0
VERTEX
  8
0
 10
104.93221726
 20
33.84084821
  0
VERTEX
  8
0
 10
104.74726911
 20
33.33553176
  0
VERTEX
  8
0
 10
104.61174045
 20
32.80844184
  0
VERTEX
  8
0
 10
104.52839588
 20
32.26234305
  0
VERTEX
  8
0
 10
104.50000000
 20
31.70000000
  0
VERTEX
  8
0
 10
104.52839588
 20
31.13765695
  0
VERTEX
  8
0
 10
104.61174045
 20
30.59155816
  0
VERTEX
  8
0
 10
104.74726911
 20
30.06446824
  0
VERTEX
  8
0
 10
104.93221726
 20
29.55915179
  0
VERTEX
  8
0
 10
105.16382030
 20
29.07837341
  0
VERTEX
  8
0
 10
105.43931362
 20
28.62489770
  0
VERTEX
  8
0
 10
105.75593262
 20
28.20148926
  0
VERTEX
  8
0
 10
106.11091270
 20
27.81091270
  0
VERTEX
  8
0
 10
106.50148926
 20
27.45593262
  0
VERTEX
  8
0
 10
106.92489770
 20
27.13931362
  0
VERTEX
  8
0
 10
107.37837341
 20
26.86382030
  0
VERTEX
  8
0
 10
107.85915179
 20
26.63221726
  0
VERTEX
  8
0
 10
108.36446824
 20
26.44726911
  0
VERTEX
  8
0
 10
108.89155816
 20
26.31174045
  0
VERTEX
  8
0
 10
109.43765695
 20
26.22839588
  0
VERTEX
  8
0
 10
110.00000000
 20
26.20000000
  0
VERTEX
  8
0
 10
110.56234305
 20
26.22839588
  0
VERTEX
  8
0
 10
111.10844184
 20
26.31174045
  0
VERTEX
  8
0
 10
111.63553176
 20
26.44726911
  0
VERTEX
  8
0
 10
112.14084821
 20
26.63221726
  0
VERTEX
  8
0
 10
112.62162659
 20
26.86382030
  0
VERTEX
  8
0
 10
113.07510230
 20
27.13931362
  0
VERTEX
  8
0
 10
113.49851074
 20
27.45593262
  0
VERTEX
  8
0
 10
113.88908730
 20
27.81091270
  0
VERTEX
  8
0
 10
114.24406738
 20
28.20148926
  0
VERTEX
  8
0
 10
114.56068638
 20
28.62489770
  0
VERTEX
  8
0
 10
114.83617970
 20
29.07837341
  0
VERTEX
  8
0
 10
115.06778274
 20
29.55915179
  0
VERTEX
  8
0
 10
115.25273089
 20
30.06446824
  0
VERTEX
  8
0
 10
115.38825955
 20
30.59155816
  0
VERTEX
  8
0
 10
115.47160412
 20
31.13765695
  0
VERTEX
  8
0
 10
115.50000000
 20
31.70000000
  0
SEQEND
  0
POLYLINE
  8
Capa por Defecto
 66
   1
 39
0.000000
 70
    0
  0
VERTEX
  8
0
 10
112.59855610
 20
42.70000000
  0
VERTEX
  8
0
 10
112.59860646
 20
42.70008518
  0
SEQEND
  0
POLYLINE
  8
Capa por Defecto
 66
   1
 39
0.000000
 70
    0
  0
VERTEX
  8
0
 10
112.59860646
 20
42.70008518
  0
VERTEX
  8
0
 10
112.59850000
 20
42.70000000
  0
SEQEND
  0
POLYLINE
  8
Capa por Defecto
 66
   1
 39
0.000000
 70
    0
  0
VERTEX
  8
0
 10
112.59855610
 20
42.70000000
  0
VERTEX
  8
0
 10
112.59860646
 20
42.70008518
  0
SEQEND
  0
POLYLINE
  8
Capa por Defecto
 66
   1
 39
0.000000
 70
    0
  0
VERTEX
  8
0
 10
112.59860646
 20
42.70008518
  0
VERTEX
  8
0
 10
112.59850000
 20
42.70000000
  0
SEQEND
  0
POLYLINE
  8
Capa por Defecto
 66
   1
 39
0.000000
 70
    1
  0
VERTEX
  8
0
 10
170.50000000
 20
31.70000000
  0
VERTEX
  8
0
 10
170.47160412
 20
32.26234305
  0
VERTEX
  8
0
 10
170.38825955
 20
32.80844184
  0
VERTEX
  8
0
 10
170.25273089
 20
33.33553176
  0
VERTEX
  8
0
 10
170.06778274
 20
33.84084821
  0
VERTEX
  8
0
 10
169.83617970
 20
34.32162659
  0
VERTEX
  8
0
 10
169.56068638
 20
34.77510230
  0
VERTEX
  8
0
 10
169.24406738
 20
35.19851074
  0
VERTEX
  8
0
 10
168.88908730
 20
35.58908730
  0
VERTEX
  8
0
 10
168.49851074
 20
35.94406738
  0
VERTEX
  8
0
 10
168.07510230
 20
36.26068638
  0
VERTEX
  8
0
 10
167.62162659
 20
36.53617970
  0
VERTEX
  8
0
 10
167.14084821
 20
36.76778274
  0
VERTEX
  8
0
 10
166.63553176
 20
36.95273089
  0
VERTEX
  8
0
 10
166.10844184
 20
37.08825955
  0
VERTEX
  8
0
 10
165.56234305
 20
37.17160412
  0
VERTEX
  8
0
 10
165.00000000
 20
37.20000000
  0
VERTEX
  8
0
 10
164.43765695
 20
37.17160412
  0
VERTEX
  8
0
 10
163.89155816
 20
37.08825955
  0
VERTEX
  8
0
 10
163.36446824
 20
36.95273089
  0
VERTEX
  8
0
 10
162.85915179
 20
36.76778274
  0
VERTEX
  8
0
 10
162.37837341
 20
36.53617970
  0
VERTEX
  8
0
 10
161.92489770
 20
36.26068638
  0
VERTEX
  8
0
 10
161.50148926
 20
35.94406738
  0
VERTEX
  8
0
 10
161.11091270
 20
35.58908730
  0
VERTEX
  8
0
 10
160.75593262
 20
35.19851074
  0
VERTEX
  8
0
 10
160.43931362
 20
34.77510230
  0
VERTEX
  8
0
 10
160.16382030
 20
34.32162659
  0
VERTEX
  8
0
 10
159.93221726
 20
33.84084821
  0
VERTEX
  8
0
 10
159.74726911
 20
33.33553176
  0
VERTEX
  8
0
 10
159.61174045
 20
32.80844184
  0
VERTEX
  8
0
 10
159.52839588
 20
32.26234305
  0
VERTEX
  8
0
 10
159.50000000
 20
31.70000000
  0
VERTEX
  8
0
 10
159.52839588
 20
31.13765695
  0
VERTEX
  8
0
 10
159.61174045
 20
30.59155816
  0
VERTEX
  8
0
 10
159.74726911
 20
30.06446824
  0
VERTEX
  8
0
 10
159.93221726
 20
29.55915179
  0
VERTEX
  8
0
 10
160.16382030
 20
29.07837341
  0
VERTEX
  8
0
 10
160.43931362
 20
28.62489770
  0
VERTEX
  8
0
 10
160.75593262
 20
28.20148926
  0
VERTEX
  8
0
 10
161.11091270
 20
27.81091270
  0
VERTEX
  8
0
 10
161.50148926
 20
27.45593262
  0
VERTEX
  8
0
 10
161.92489770
 20
27.13931362
  0
VERTEX
  8
0
 10
162.37837341
 20
26.86382030
  0
VERTEX
  8
0
 10
162.85915179
 20
26.63221726
  0
VERTEX
  8
0
 10
163.36446824
 20
26.44726911
  0
VERTEX
  8
0
 10
163.89155816
 20
26.31174045
  0
VERTEX
  8
0
 10
164.43765695
 20
26.22839588
  0
VERTEX
  8
0
 10
165.00000000
 20
26.20000000
  0
VERTEX
  8
0
 10
165.56234305
 20
26.22839588
  0
VERTEX
  8
0
 10
166.10844184
 20
26.31174045
  0
VERTEX
  8
0
 10
166.63553176
 20
26.44726911
  0
VERTEX
  8
0
 10
167.14084821
 20
26.63221726
  0
VERTEX
  8
0
 10
167.62162659
 20
26.86382030
  0
VERTEX
  8
0
 10
168.07510230
 20
27.13931362
  0
VERTEX
  8
0
 10
168.49851074
 20
27.45593262
  0
VERTEX
  8
0
 10
168.88908730
 20
27.81091270
  0
VERTEX
  8
0
 10
169.24406738
 20
28.20148926
  0
VERTEX
  8
0
 10
169.56068638
 20
28.62489770
  0
VERTEX
  8
0
 10
169.83617970
 20
29.07837341
  0
VERTEX
  8
0
 10
170.06778274
 20
29.55915179
  0
VERTEX
  8
0
 10
170.25273089
 20
30.06446824
  0
VERTEX
  8
0
 10
170.38825955
 20
30.59155816
  0
VERTEX
  8
0
 10
170.47160412
 20
31.13765695
  0
VERTEX
  8
0
 10
170.50000000
 20
31.70000000
  0
SEQEND
  0
POLYLINE
  8
Capa por Defecto
 66
   1
 39
0.000000
 70
    0
  0
VERTEX
  8
0
 10
167.59855610
 20
42.70000000
  0
VERTEX
  8
0
 10
167.59860646
 20
42.70008518
  0
SEQEND
  0
POLYLINE
  8
Capa por Defecto
 66
   1
 39
0.000000
 70
    0
  0
VERTEX
  8
0
 10
167.59860646
 20
42.70008518
  0
VERTEX
  8
0
 10
167.59850000
 20
42.70000000
  0
SEQEND
  0
POLYLINE
  8
Capa por Defecto
 66
   1
 39
0.000000
 70
    0
  0
VERTEX
  8
0
 10
167.59855610
 20
42.70000000
  0
VERTEX
  8
0
 10
167.59860646
 20
42.70008518
  0
SEQEND
  0
POLYLINE
  8
Capa por Defecto
 66
   1
 39
0.000000
 70
    0
  0
VERTEX
  8
0
 10
167.59860646
 20
42.70008518
  0
VERTEX
  8
0
 10
167.59850000
 20
42.70000000
  0
SEQEND
  0
POLYLINE
  8
Capa por Defecto
 66
   1
 39
0.000000
 70
    0
  0
VERTEX
  8
0
 10
167.59855610
 20
-20.70000000
  0
VERTEX
  8
0
 10
167.59860646
 20
-20.69991482
  0
SEQEND
  0
POLYLINE
  8
Capa por Defecto
 66
   1
 39
0.000000
 70
    0
  0
VERTEX
  8
0
 10
167.59860646
 20
-20.69991482
  0
VERTEX
  8
0
 10
167.59850000
 20
-20.70000000
  0
SEQEND
  0
POLYLINE
  8
Capa por Defecto
 66
   1
 39
0.000000
 70
    1
  0
VERTEX
  8
0
 10
170.50000000
 20
-31.70000000
  0
VERTEX
  8
0
 10
170.47160412
 20
-31.13765695
  0
VERTEX
  8
0
 10
170.38825955
 20
-30.59155816
  0
VERTEX
  8
0
 10
170.25273089
 20
-30.06446824
  0
VERTEX
  8
0
 10
170.06778274
 20
-29.55915179
  0
VERTEX
  8
0
 10
169.83617970
 20
-29.07837341
  0
VERTEX
  8
0
 10
169.56068638
 20
-28.62489770
  0
VERTEX
  8
0
 10
169.24406738
 20
-28.20148926
  0
VERTEX
  8
0
 10
168.88908730
 20
-27.81091270
  0
VERTEX
  8
0
 10
168.49851074
 20
-27.45593262
  0
VERTEX
  8
0
 10
168.07510230
 20
-27.13931362
  0
VERTEX
  8
0
 10
167.62162659
 20
-26.86382030
  0
VERTEX
  8
0
 10
167.14084821
 20
-26.63221726
  0
VERTEX
  8
0
 10
166.63553176
 20
-26.44726911
  0
VERTEX
  8
0
 10
166.10844184
 20
-26.31174045
  0
VERTEX
  8
0
 10
165.56234305
 20
-26.22839588
  0
VERTEX
  8
0
 10
165.00000000
 20
-26.20000000
  0
VERTEX
  8
0
 10
164.43765695
 20
-26.22839588
  0
VERTEX
  8
0
 10
163.89155816
 20
-26.31174045
  0
VERTEX
  8
0
 10
163.36446824
 20
-26.44726911
  0
VERTEX
  8
0
 10
162.85915179
 20
-26.63221726
  0
VERTEX
  8
0
 10
162.37837341
 20
-26.86382030
  0
VERTEX
  8
0
 10
161.92489770
 20
-27.13931362
  0
VERTEX
  8
0
 10
161.50148926
 20
-27.45593262
  0
VERTEX
  8
0
 10
161.11091270
 20
-27.81091270
  0
VERTEX
  8
0
 10
160.75593262
 20
-28.20148926
  0
VERTEX
  8
0
 10
160.43931362
 20
-28.62489770
  0
VERTEX
  8
0
 10
160.16382030
 20
-29.07837341
  0
VERTEX
  8
0
 10
159.93221726
 20
-29.55915179
  0
VERTEX
  8
0
 10
159.74726911
 20
-30.06446824
  0
VERTEX
  8
0
 10
159.61174045
 20
-30.59155816
  0
VERTEX
  8
0
 10
159.52839588
 20
-31.13765695
  0
VERTEX
  8
0
 10
159.50000000
 20
-31.70000000
  0
VERTEX
  8
0
 10
159.52839588
 20
-32.26234305
  0
VERTEX
  8
0
 10
159.61174045
 20
-32.80844184
  0
VERTEX
  8
0
 10
159.74726911
 20
-33.33553176
  0
VERTEX
  8
0
 10
159.93221726
 20
-33.84084821
  0
VERTEX
  8
0
 10
160.16382030
 20
-34.32162659
  0
VERTEX
  8
0
 10
160.43931362
 20
-34.77510230
  0
VERTEX
  8
0
 10
160.75593262
 20
-35.19851074
  0
VERTEX
  8
0
 10
161.11091270
 20
-35.58908730
  0
VERTEX
  8
0
 10
161.50148926
 20
-35.94406738
  0
VERTEX
  8
0
 10
161.92489770
 20
-36.26068638
  0
VERTEX
  8
0
 10
162.37837341
 20
-36.53617970
  0
VERTEX
  8
0
 10
162.85915179
 20
-36.76778274
  0
VERTEX
  8
0
 10
163.36446824
 20
-36.95273089
  0
VERTEX
  8
0
 10
163.89155816
 20
-37.08825955
  0
VERTEX
  8
0
 10
164.43765695
 20
-37.17160412
  0
VERTEX
  8
0
 10
165.00000000
 20
-37.20000000
  0
VERTEX
  8
0
 10
165.56234305
 20
-37.17160412
  0
VERTEX
  8
0
 10
166.10844184
 20
-37.08825955
  0
VERTEX
  8
0
 10
166.63553176
 20
-36.95273089
  0
VERTEX
  8
0
 10
167.14084821
 20
-36.76778274
  0
VERTEX
  8
0
 10
167.62162659
 20
-36.53617970
  0
VERTEX
  8
0
 10
168.07510230
 20
-36.26068638
  0
VERTEX
  8
0
 10
168.49851074
 20
-35.94406738
  0
VERTEX
  8
0
 10
168.88908730
 20
-35.58908730
  0
VERTEX
  8
0
 10
169.24406738
 20
-35.19851074
  0
VERTEX
  8
0
 10
169.56068638
 20
-34.77510230
  0
VERTEX
  8
0
 10
169.83617970
 20
-34.32162659
  0
VERTEX
  8
0
 10
170.06778274
 20
-33.84084821
  0
VERTEX
  8
0
 10
170.25273089
 20
-33.33553176
  0
VERTEX
  8
0
 10
170.38825955
 20
-32.80844184
  0
VERTEX
  8
0
 10
170.47160412
 20
-32.26234305
  0
VERTEX
  8
0
 10
170.50000000
 20
-31.70000000
  0
SEQEND
  0
POLYLINE
  8
Capa por Defecto
 66
   1
 39
0.000000
 70
    0
  0
VERTEX
  8
0
 10
167.59855610
 20
-20.70000000
  0
VERTEX
  8
0
 10
167.59860646
 20
-20.69991482
  0
SEQEND
  0
POLYLINE
  8
Capa por Defecto
 66
   1
 39
0.000000
 70
    0
  0
VERTEX
  8
0
 10
167.59860646
 20
-20.69991482
  0
VERTEX
  8
0
 10
167.59850000
 20
-20.70000000
  0
SEQEND
  0
POLYLINE
  8
Capa por Defecto
 66
   1
 39
0.000000
 70
    0
  0
VERTEX
  8
0
 10
112.59855610
 20
-20.70000000
  0
VERTEX
  8
0
 10
112.59860646
 20
-20.69991482
  0
SEQEND
  0
POLYLINE
  8
Capa por Defecto
 66
   1
 39
0.000000
 70
    0
  0
VERTEX
  8
0
 10
112.59860646
 20
-20.69991482
  0
VERTEX
  8
0
 10
112.59850000
 20
-20.70000000
  0
SEQEND
  0
POLYLINE
  8
Capa por Defecto
 66
   1
 39
0.000000
 70
    1
  0
VERTEX
  8
0
 10
115.50000000
 20
-31.70000000
  0
VERTEX
  8
0
 10
115.47160412
 20
-31.13765695
  0
VERTEX
  8
0
 10
115.38825955
 20
-30.59155816
  0
VERTEX
  8
0
 10
115.25273089
 20
-30.06446824
  0
VERTEX
  8
0
 10
115.06778274
 20
-29.55915179
  0
VERTEX
  8
0
 10
114.83617970
 20
-29.07837341
  0
VERTEX
  8
0
 10
114.56068638
 20
-28.62489770
  0
VERTEX
  8
0
 10
114.24406738
 20
-28.20148926
  0
VERTEX
  8
0
 10
113.88908730
 20
-27.81091270
  0
VERTEX
  8
0
 10
113.49851074
 20
-27.45593262
  0
VERTEX
  8
0
 10
113.07510230
 20
-27.13931362
  0
VERTEX
  8
0
 10
112.62162659
 20
-26.86382030
  0
VERTEX
  8
0
 10
112.14084821
 20
-26.63221726
  0
VERTEX
  8
0
 10
111.63553176
 20
-26.44726911
  0
VERTEX
  8
0
 10
111.10844184
 20
-26.31174045
  0
VERTEX
  8
0
 10
110.56234305
 20
-26.22839588
  0
VERTEX
  8
0
 10
110.00000000
 20
-26.20000000
  0
VERTEX
  8
0
 10
109.43765695
 20
-26.22839588
  0
VERTEX
  8
0
 10
108.89155816
 20
-26.31174045
  0
VERTEX
  8
0
 10
108.36446824
 20
-26.44726911
  0
VERTEX
  8
0
 10
107.85915179
 20
-26.63221726
  0
VERTEX
  8
0
 10
107.37837341
 20
-26.86382030
  0
VERTEX
  8
0
 10
106.92489770
 20
-27.13931362
  0
VERTEX
  8
0
 10
106.50148926
 20
-27.45593262
  0
VERTEX
  8
0
 10
106.11091270
 20
-27.81091270
  0
VERTEX
  8
0
 10
105.75593262
 20
-28.20148926
  0
VERTEX
  8
0
 10
105.43931362
 20
-28.62489770
  0
VERTEX
  8
0
 10
105.16382030
 20
-29.07837341
  0
VERTEX
  8
0
 10
104.93221726
 20
-29.55915179
  0
VERTEX
  8
0
 10
104.74726911
 20
-30.06446824
  0
VERTEX
  8
0
 10
104.61174045
 20
-30.59155816
  0
VERTEX
  8
0
 10
104.52839588
 20
-31.13765695
  0
VERTEX
  8
0
 10
104.50000000
 20
-31.70000000
  0
VERTEX
  8
0
 10
104.52839588
 20
-32.26234305
  0
VERTEX
  8
0
 10
104.61174045
 20
-32.80844184
  0
VERTEX
  8
0
 10
104.74726911
 20
-33.33553176
  0
VERTEX
  8
0
 10
104.93221726
 20
-33.84084821
  0
VERTEX
  8
0
 10
105.16382030
 20
-34.32162659
  0
VERTEX
  8
0
 10
105.43931362
 20
-34.77510230
  0
VERTEX
  8
0
 10
105.75593262
 20
-35.19851074
  0
VERTEX
  8
0
 10
106.11091270
 20
-35.58908730
  0
VERTEX
  8
0
 10
106.50148926
 20
-35.94406738
  0
VERTEX
  8
0
 10
106.92489770
 20
-36.26068638
  0
VERTEX
  8
0
 10
107.37837341
 20
-36.53617970
  0
VERTEX
  8
0
 10
107.85915179
 20
-36.76778274
  0
VERTEX
  8
0
 10
108.36446824
 20
-36.95273089
  0
VERTEX
  8
0
 10
108.89155816
 20
-37.08825955
  0
VERTEX
  8
0
 10
109.43765695
 20
-37.17160412
  0
VERTEX
  8
0
 10
110.00000000
 20
-37.20000000
  0
VERTEX
  8
0
 10
110.56234305
 20
-37.17160412
  0
VERTEX
  8
0
 10
111.10844184
 20
-37.08825955
  0
VERTEX
  8
0
 10
111.63553176
 20
-36.95273089
  0
VERTEX
  8
0
 10
112.14084821
 20
-36.76778274
  0
VERTEX
  8
0
 10
112.62162659
 20
-36.53617970
  0
VERTEX
  8
0
 10
113.07510230
 20
-36.26068638
  0
VERTEX
  8
0
 10
113.49851074
 20
-35.94406738
  0
VERTEX
  8
0
 10
113.88908730
 20
-35.58908730
  0
VERTEX
  8
0
 10
114.24406738
 20
-35.19851074
  0
VERTEX
  8
0
 10
114.56068638
 20
-34.77510230
  0
VERTEX
  8
0
 10
114.83617970
 20
-34.32162659
  0
VERTEX
  8
0
 10
115.06778274
 20
-33.84084821
  0
VERTEX
  8
0
 10
115.25273089
 20
-33.33553176
  0
VERTEX
  8
0
 10
115.38825955
 20
-32.80844184
  0
VERTEX
  8
0
 10
115.47160412
 20
-32.26234305
  0
VERTEX
  8
0
 10
115.50000000
 20
-31.70000000
  0
SEQEND
  0
POLYLINE
  8
Capa por Defecto
 66
   1
 39
0.000000
 70
    0
  0
VERTEX
  8
0
 10
112.59855610
 20
-20.70000000
  0
VERTEX
  8
0
 10
112.59860646
 20
-20.69991482
  0
SEQEND
  0
POLYLINE
  8
Capa por Defecto
 66
   1
 39
0.000000
 70
    0
  0
VERTEX
  8
0
 10
112.59860646
 20
-20.69991482
  0
VERTEX
  8
0
 10
112.59850000
 20
-20.70000000
  0
SEQEND
  0
POLYLINE
  8
Capa por Defecto
 66
   1
 39
0.000000
 70
    1
  0
VERTEX
  8
0
 10
-180.75000000
 20
-31.70000000
  0
VERTEX
  8
0
 10
-180.72950620
 20
-30.88950709
  0
VERTEX
  8
0
 10
-180.66868453
 20
-30.08965399
  0
VERTEX
  8
0
 10
-180.56852459
 20
-29.30143031
  0
VERTEX
  8
0
 10
-180.43001598
 20
-28.52582565
  0
VERTEX
  8
0
 10
-180.25414831
 20
-27.76382961
  0
VERTEX
  8
0
 10
-180.04191117
 20
-27.01643179
  0
VERTEX
  8
0
 10
-179.79429418
 20
-26.28462179
  0
VERTEX
  8
0
 10
-179.51228693
 20
-25.56938922
  0
VERTEX
  8
0
 10
-179.19687902
 20
-24.87172368
  0
VERTEX
  8
0
 10
-178.84906005
 20
-24.19261476
  0
VERTEX
  8
0
 10
-178.46981963
 20
-23.53305208
  0
VERTEX
  8
0
 10
-178.06014736
 20
-22.89402523
  0
VERTEX
  8
0
 10
-177.62103284
 20
-22.27652381
  0
VERTEX
  8
0
 10
-177.15346567
 20
-21.68153744
  0
VERTEX
  8
0
 10
-176.65843546
 20
-21.11005570
  0
VERTEX
  8
0
 10
-176.13693180
 20
-20.56306820
  0
VERTEX
  8
0
 10
-175.58994430
 20
-20.04156454
  0
VERTEX
  8
0
 10
-175.01846256
 20
-19.54653433
  0
VERTEX
  8
0
 10
-174.42347619
 20
-19.07896716
  0
VERTEX
  8
0
 10
-173.80597477
 20
-18.63985264
  0
VERTEX
  8
0
 10
-173.16694792
 20
-18.23018037
  0
VERTEX
  8
0
 10
-172.50738524
 20
-17.85093995
  0
VERTEX
  8
0
 10
-171.82827632
 20
-17.50312098
  0
VERTEX
  8
0
 10
-171.13061078
 20
-17.18771307
  0
VERTEX
  8
0
 10
-170.41537821
 20
-16.90570582
  0
VERTEX
  8
0
 10
-169.68356821
 20
-16.65808883
  0
VERTEX
  8
0
 10
-168.93617039
 20
-16.44585169
  0
VERTEX
  8
0
 10
-168.17417435
 20
-16.26998402
  0
VERTEX
  8
0
 10
-167.39856969
 20
-16.13147541
  0
VERTEX
  8
0
 10
-166.61034601
 20
-16.03131547
  0
VERTEX
  8
0
 10
-165.81049291
 20
-15.97049380
  0
VERTEX
  8
0
 10
-165.00000000
 20
-15.95000000
  0
VERTEX
  8
0
 10
-164.18950709
 20
-15.97049380
  0
VERTEX
  8
0
 10
-163.38965399
 20
-16.03131547
  0
VERTEX
  8
0
 10
-162.60143031
 20
-16.13147541
  0
VERTEX
  8
0
 10
-161.82582565
 20
-16.26998402
  0
VERTEX
  8
0
 10
-161.06382961
 20
-16.44585169
  0
VERTEX
  8
0
 10
-160.31643179
 20
-16.65808883
  0
VERTEX
  8
0
 10
-159.58462179
 20
-16.90570582
  0
VERTEX
  8
0
 10
-158.86938922
 20
-17.18771307
  0
VERTEX
  8
0
 10
-158.17172368
 20
-17.50312098
  0
VERTEX
  8
0
 10
-157.49261476
 20
-17.85093995
  0
VERTEX
  8
0
 10
-156.83305208
 20
-18.23018037
  0
VERTEX
  8
0
 10
-156.19402523
 20
-18.63985264
  0
VERTEX
  8
0
 10
-155.57652381
 20
-19.07896716
  0
VERTEX
  8
0
 10
-154.98153744
 20
-19.54653433
  0
VERTEX
  8
0
 10
-154.41005570
 20
-20.04156454
  0
VERTEX
  8
0
 10
-153.86306820
 20
-20.56306820
  0
VERTEX
  8
0
 10
-153.34156454
 20
-21.11005570
  0
VERTEX
  8
0
 10
-152.84653433
 20
-21.68153744
  0
VERTEX
  8
0
 10
-152.37896716
 20
-22.27652381
  0
VERTEX
  8
0
 10
-151.93985264
 20
-22.89402523
  0
VERTEX
  8
0
 10
-151.53018037
 20
-23.53305208
  0
VERTEX
  8
0
 10
-151.15093995
 20
-24.19261476
  0
VERTEX
  8
0
 10
-150.80312098
 20
-24.87172368
  0
VERTEX
  8
0
 10
-150.48771307
 20
-25.56938922
  0
VERTEX
  8
0
 10
-150.20570582
 20
-26.28462179
  0
VERTEX
  8
0
 10
-149.95808883
 20
-27.01643179
  0
VERTEX
  8
0
 10
-149.74585169
 20
-27.76382961
  0
VERTEX
  8
0
 10
-149.56998402
 20
-28.52582565
  0
VERTEX
  8
0
 10
-149.43147541
 20
-29.30143031
  0
VERTEX
  8
0
 10
-149.33131547
 20
-30.08965399
  0
VERTEX
  8
0
 10
-149.27049380
 20
-30.88950709
  0
VERTEX
  8
0
 10
-149.25000000
 20
-31.70000000
  0
VERTEX
  8
0
 10
-149.27049380
 20
-32.51049291
  0
VERTEX
  8
0
 10
-149.33131547
 20
-33.31034601
  0
VERTEX
  8
0
 10
-149.43147541
 20
-34.09856969
  0
VERTEX
  8
0
 10
-149.56998402
 20
-34.87417435
  0
VERTEX
  8
0
 10
-149.74585169
 20
-35.63617039
  0
VERTEX
  8
0
 10
-149.95808883
 20
-36.38356821
  0
VERTEX
  8
0
 10
-150.20570582
 20
-37.11537821
  0
VERTEX
  8
0
 10
-150.48771307
 20
-37.83061078
  0
VERTEX
  8
0
 10
-150.80312098
 20
-38.52827632
  0
VERTEX
  8
0
 10
-151.15093995
 20
-39.20738524
  0
VERTEX
  8
0
 10
-151.53018037
 20
-39.86694792
  0
VERTEX
  8
0
 10
-151.93985264
 20
-40.50597477
  0
VERTEX
  8
0
 10
-152.37896716
 20
-41.12347619
  0
VERTEX
  8
0
 10
-152.84653433
 20
-41.71846256
  0
VERTEX
  8
0
 10
-153.34156454
 20
-42.28994430
  0
VERTEX
  8
0
 10
-153.86306820
 20
-42.83693180
  0
VERTEX
  8
0
 10
-154.41005570
 20
-43.35843546
  0
VERTEX
  8
0
 10
-154.98153744
 20
-43.85346567
  0
VERTEX
  8
0
 10
-155.57652381
 20
-44.32103284
  0
VERTEX
  8
0
 10
-156.19402523
 20
-44.76014736
  0
VERTEX
  8
0
 10
-156.83305208
 20
-45.16981963
  0
VERTEX
  8
0
 10
-157.49261476
 20
-45.54906005
  0
VERTEX
  8
0
 10
-158.17172368
 20
-45.89687902
  0
VERTEX
  8
0
 10
-158.86938922
 20
-46.21228693
  0
VERTEX
  8
0
 10
-159.58462179
 20
-46.49429418
  0
VERTEX
  8
0
 10
-160.31643179
 20
-46.74191117
  0
VERTEX
  8
0
 10
-161.06382961
 20
-46.95414831
  0
VERTEX
  8
0
 10
-161.82582565
 20
-47.13001598
  0
VERTEX
  8
0
 10
-162.60143031
 20
-47.26852459
  0
VERTEX
  8
0
 10
-163.38965399
 20
-47.36868453
  0
VERTEX
  8
0
 10
-164.18950709
 20
-47.42950620
  0
VERTEX
  8
0
 10
-165.00000000
 20
-47.45000000
  0
VERTEX
  8
0
 10
-165.81049291
 20
-47.42950620
  0
VERTEX
  8
0
 10
-166.61034601
 20
-47.36868453
  0
VERTEX
  8
0
 10
-167.39856969
 20
-47.26852459
  0
VERTEX
  8
0
 10
-168.17417435
 20
-47.13001598
  0
VERTEX
  8
0
 10
-168.93617039
 20
-46.95414831
  0
VERTEX
  8
0
 10
-169.68356821
 20
-46.74191117
  0
VERTEX
  8
0
 10
-170.41537821
 20
-46.49429418
  0
VERTEX
  8
0
 10
-171.13061078
 20
-46.21228693
  0
VERTEX
  8
0
 10
-171.82827632
 20
-45.89687902
  0
VERTEX
  8
0
 10
-172.50738524
 20
-45.54906005
  0
VERTEX
  8
0
 10
-173.16694792
 20
-45.16981963
  0
VERTEX
  8
0
 10
-173.80597477
 20
-44.76014736
  0
VERTEX
  8
0
 10
-174.42347619
 20
-44.32103284
  0
VERTEX
  8
0
 10
-175.01846256
 20
-43.85346567
  0
VERTEX
  8
0
 10
-175.58994430
 20
-43.35843546
  0
VERTEX
  8
0
 10
-176.13693180
 20
-42.83693180
  0
VERTEX
  8
0
 10
-176.65843546
 20
-42.28994430
  0
VERTEX
  8
0
 10
-177.15346567
 20
-41.71846256
  0
VERTEX
  8
0
 10
-177.62103284
 20
-41.12347619
  0
VERTEX
  8
0
 10
-178.06014736
 20
-40.50597477
  0
VERTEX
  8
0
 10
-178.46981963
 20
-39.86694792
  0
VERTEX
  8
0
 10
-178.84906005
 20
-39.20738524
  0
VERTEX
  8
0
 10
-179.19687902
 20
-38.52827632
  0
VERTEX
  8
0
 10
-179.51228693
 20
-37.83061078
  0
VERTEX
  8
0
 10
-179.79429418
 20
-37.11537821
  0
VERTEX
  8
0
 10
-180.04191117
 20
-36.38356821
  0
VERTEX
  8
0
 10
-180.25414831
 20
-35.63617039
  0
VERTEX
  8
0
 10
-180.43001598
 20
-34.87417435
  0
VERTEX
  8
0
 10
-180.56852459
 20
-34.09856969
  0
VERTEX
  8
0
 10
-180.66868453
 20
-33.31034601
  0
VERTEX
  8
0
 10
-180.72950620
 20
-32.51049291
  0
VERTEX
  8
0
 10
-180.75000000
 20
-31.70000000
  0
SEQEND
  0
POLYLINE
  8
Capa por Defecto
 66
   1
 39
0.000000
 70
    1
  0
VERTEX
  8
0
 10
149.25000000
 20
31.70000000
  0
VERTEX
  8
0
 10
149.27049380
 20
32.51049291
  0
VERTEX
  8
0
 10
149.33131547
 20
33.31034601
  0
VERTEX
  8
0
 10
149.43147541
 20
34.09856969
  0
VERTEX
  8
0
 10
149.56998402
 20
34.87417435
  0
VERTEX
  8
0
 10
149.74585169
 20
35.63617039
  0
VERTEX
  8
0
 10
149.95808883
 20
36.38356821
  0
VERTEX
  8
0
 10
150.20570582
 20
37.11537821
  0
VERTEX
  8
0
 10
150.48771307
 20
37.83061078
  0
VERTEX
  8
0
 10
150.80312098
 20
38.52827632
  0
VERTEX
  8
0
 10
151.15093995
 20
39.20738524
  0
VERTEX
  8
0
 10
151.53018037
 20
39.86694792
  0
VERTEX
  8
0
 10
151.93985264
 20
40.50597477
  0
VERTEX
  8
0
 10
152.37896716
 20
41.12347619
  0
VERTEX
  8
0
 10
152.84653433
 20
41.71846256
  0
VERTEX
  8
0
 10
153.34156454
 20
42.28994430
  0
VERTEX
  8
0
 10
153.86306820
 20
42.83693180
  0
VERTEX
  8
0
 10
154.41005570
 20
43.35843546
  0
VERTEX
  8
0
 10
154.98153744
 20
43.85346567
  0
VERTEX
  8
0
 10
155.57652381
 20
44.32103284
  0
VERTEX
  8
0
 10
156.19402523
 20
44.76014736
  0
VERTEX
  8
0
 10
156.83305208
 20
45.16981963
  0
VERTEX
  8
0
 10
157.49261476
 20
45.54906005
  0
VERTEX
  8
0
 10
158.17172368
 20
45.89687902
  0
VERTEX
  8
0
 10
158.86938922
 20
46.21228693
  0
VERTEX
  8
0
 10
159.58462179
 20
46.49429418
  0
VERTEX
  8
0
 10
160.31643179
 20
46.74191117
  0
VERTEX
  8
0
 10
161.06382961
 20
46.95414831
  0
VERTEX
  8
0
 10
161.82582565
 20
47.13001598
  0
VERTEX
  8
0
 10
162.60143031
 20
47.26852459
  0
VERTEX
  8
0
 10
163.38965399
 20
47.36868453
  0
VERTEX
  8
0
 10
164.18950709
 20
47.42950620
  0
VERTEX
  8
0
 10
165.00000000
 20
47.45000000
  0
VERTEX
  8
0
 10
165.81049291
 20
47.42950620
  0
VERTEX
  8
0
 10
166.61034601
 20
47.36868453
  0
VERTEX
  8
0
 10
167.39856969
 20
47.26852459
  0
VERTEX
  8
0
 10
168.17417435
 20
47.13001598
  0
VERTEX
  8
0
 10
168.93617039
 20
46.95414831
  0
VERTEX
  8
0
 10
169.68356821
 20
46.74191117
  0
VERTEX
  8
0
 10
170.41537821
 20
46.49429418
  0
VERTEX
  8
0
 10
171.13061078
 20
46.21228693
  0
VERTEX
  8
0
 10
171.82827632
 20
45.89687902
  0
VERTEX
  8
0
 10
172.50738524
 20
45.54906005
  0
VERTEX
  8
0
 10
173.16694792
 20
45.16981963
  0
VERTEX
  8
0
 10
173.80597477
 20
44.76014736
  0
VERTEX
  8
0
 10
174.42347619
 20
44.32103284
  0
VERTEX
  8
0
 10
175.01846256
 20
43.85346567
  0
VERTEX
  8
0
 10
175.58994430
 20
43.35843546
  0
VERTEX
  8
0
 10
176.13693180
 20
42.83693180
  0
VERTEX
  8
0
 10
176.65843546
 20
42.28994430
  0
VERTEX
  8
0
 10
177.15346567
 20
41.71846256
  0
VERTEX
  8
0
 10
177.62103284
 20
41.12347619
  0
VERTEX
  8
0
 10
178.06014736
 20
40.50597477
  0
VERTEX
  8
0
 10
178.46981963
 20
39.86694792
  0
VERTEX
  8
0
 10
178.84906005
 20
39.20738524
  0
VERTEX
  8
0
 10
179.19687902
 20
38.52827632
  0
VERTEX
  8
0
 10
179.51228693
 20
37.83061078
  0
VERTEX
  8
0
 10
179.79429418
 20
37.11537821
  0
VERTEX
  8
0
 10
180.04191117
 20
36.38356821
  0
VERTEX
  8
0
 10
180.25414831
 20
35.63617039
  0
VERTEX
  8
0
 10
180.43001598
 20
34.87417435
  0
VERTEX
  8
0
 10
180.56852459
 20
34.09856969
  0
VERTEX
  8
0
 10
180.66868453
 20
33.31034601
  0
VERTEX
  8
0
 10
180.72950620
 20
32.51049291
  0
VERTEX
  8
0
 10
180.75000000
 20
31.70000000
  0
VERTEX
  8
0
 10
180.72950620
 20
30.88950709
  0
VERTEX
  8
0
 10
180.66868453
 20
30.08965399
  0
VERTEX
  8
0
 10
180.56852459
 20
29.30143031
  0
VERTEX
  8
0
 10
180.43001598
 20
28.52582565
  0
VERTEX
  8
0
 10
180.25414831
 20
27.76382961
  0
VERTEX
  8
0
 10
180.04191117
 20
27.01643179
  0
VERTEX
  8
0
 10
179.79429418
 20
26.28462179
  0
VERTEX
  8
0
 10
179.51228693
 20
25.56938922
  0
VERTEX
  8
0
 10
179.19687902
 20
24.87172368
  0
VERTEX
  8
0
 10
178.84906005
 20
24.19261476
  0
VERTEX
  8
0
 10
178.46981963
 20
23.53305208
  0
VERTEX
  8
0
 10
178.06014736
 20
22.89402523
  0
VERTEX
  8
0
 10
177.62103284
 20
22.27652381
  0
VERTEX
  8
0
 10
177.15346567
 20
21.68153744
  0
VERTEX
  8
0
 10
176.65843546
 20
21.11005570
  0
VERTEX
  8
0
 10
176.13693180
 20
20.56306820
  0
VERTEX
  8
0
 10
175.58994430
 20
20.04156454
  0
VERTEX
  8
0
 10
175.01846256
 20
19.54653433
  0
VERTEX
  8
0
 10
174.42347619
 20
19.07896716
  0
VERTEX
  8
0
 10
173.80597477
 20
18.63985264
  0
VERTEX
  8
0
 10
173.16694792
 20
18.23018037
  0
VERTEX
  8
0
 10
172.50738524
 20
17.85093995
  0
VERTEX
  8
0
 10
171.82827632
 20
17.50312098
  0
VERTEX
  8
0
 10
171.13061078
 20
17.18771307
  0
VERTEX
  8
0
 10
170.41537821
 20
16.90570582
  0
VERTEX
  8
0
 10
169.68356821
 20
16.65808883
  0
VERTEX
  8
0
 10
168.93617039
 20
16.44585169
  0
VERTEX
  8
0
 10
168.17417435
 20
16.26998402
  0
VERTEX
  8
0
 10
167.39856969
 20
16.13147541
  0
VERTEX
  8
0
 10
166.61034601
 20
16.03131547
  0
VERTEX
  8
0
 10
165.81049291
 20
15.97049380
  0
VERTEX
  8
0
 10
165.00000000
 20
15.95000000
  0
VERTEX
  8
0
 10
164.18950709
 20
15.97049380
  0
VERTEX
  8
0
 10
163.38965399
 20
16.03131547
  0
VERTEX
  8
0
 10
162.60143031
 20
16.13147541
  0
VERTEX
  8
0
 10
161.82582565
 20
16.26998402
  0
VERTEX
  8
0
 10
161.06382961
 20
16.44585169
  0
VERTEX
  8
0
 10
160.31643179
 20
16.65808883
  0
VERTEX
  8
0
 10
159.58462179
 20
16.90570582
  0
VERTEX
  8
0
 10
158.86938922
 20
17.18771307
  0
VERTEX
  8
0
 10
158.17172368
 20
17.50312098
  0
VERTEX
  8
0
 10
157.49261476
 20
17.85093995
  0
VERTEX
  8
0
 10
156.83305208
 20
18.23018037
  0
VERTEX
  8
0
 10
156.19402523
 20
18.63985264
  0
VERTEX
  8
0
 10
155.57652381
 20
19.07896716
  0
VERTEX
  8
0
 10
154.98153744
 20
19.54653433
  0
VERTEX
  8
0
 10
154.41005570
 20
20.04156454
  0
VERTEX
  8
0
 10
153.86306820
 20
20.56306820
  0
VERTEX
  8
0
 10
153.34156454
 20
21.11005570
  0
VERTEX
  8
0
 10
152.84653433
 20
21.68153744
  0
VERTEX
  8
0
 10
152.37896716
 20
22.27652381
  0
VERTEX
  8
0
 10
151.93985264
 20
22.89402523
  0
VERTEX
  8
0
 10
151.53018037
 20
23.53305208
  0
VERTEX
  8
0
 10
151.15093995
 20
24.19261476
  0
VERTEX
  8
0
 10
150.80312098
 20
24.87172368
  0
VERTEX
  8
0
 10
150.48771307
 20
25.56938922
  0
VERTEX
  8
0
 10
150.20570582
 20
26.28462179
  0
VERTEX
  8
0
 10
149.95808883
 20
27.01643179
  0
VERTEX
  8
0
 10
149.74585169
 20
27.76382961
  0
VERTEX
  8
0
 10
149.56998402
 20
28.52582565
  0
VERTEX
  8
0
 10
149.43147541
 20
29.30143031
  0
VERTEX
  8
0
 10
149.33131547
 20
30.08965399
  0
VERTEX
  8
0
 10
149.27049380
 20
30.88950709
  0
VERTEX
  8
0
 10
149.25000000
 20
31.70000000
  0
SEQEND
  0
POLYLINE
  8
Capa por Defecto
 66
   1
 39
0.000000
 70
    1
  0
VERTEX
  8
0
 10
-180.75000000
 20
31.70000000
  0
VERTEX
  8
0
 10
-180.72950620
 20
32.51049291
  0
VERTEX
  8
0
 10
-180.66868453
 20
33.31034601
  0
VERTEX
  8
0
 10
-180.56852459
 20
34.09856969
  0
VERTEX
  8
0
 10
-180.43001598
 20
34.87417435
  0
VERTEX
  8
0
 10
-180.25414831
 20
35.63617039
  0
VERTEX
  8
0
 10
-180.04191117
 20
36.38356821
  0
VERTEX
  8
0
 10
-179.79429418
 20
37.11537821
  0
VERTEX
  8
0
 10
-179.51228693
 20
37.83061078
  0
VERTEX
  8
0
 10
-179.19687902
 20
38.52827632
  0
VERTEX
  8
0
 10
-178.84906005
 20
39.20738524
  0
VERTEX
  8
0
 10
-178.46981963
 20
39.86694792
  0
VERTEX
  8
0
 10
-178.06014736
 20
40.50597477
  0
VERTEX
  8
0
 10
-177.62103284
 20
41.12347619
  0
VERTEX
  8
0
 10
-177.15346567
 20
41.71846256
  0
VERTEX
  8
0
 10
-176.65843546
 20
42.28994430
  0
VERTEX
  8
0
 10
-176.13693180
 20
42.83693180
  0
VERTEX
  8
0
 10
-175.58994430
 20
43.35843546
  0
VERTEX
  8
0
 10
-175.01846256
 20
43.85346567
  0
VERTEX
  8
0
 10
-174.42347619
 20
44.32103284
  0
VERTEX
  8
0
 10
-173.80597477
 20
44.76014736
  0
VERTEX
  8
0
 10
-173.16694792
 20
45.16981963
  0
VERTEX
  8
0
 10
-172.50738524
 20
45.54906005
  0
VERTEX
  8
0
 10
-171.82827632
 20
45.89687902
  0
VERTEX
  8
0
 10
-171.13061078
 20
46.21228693
  0
VERTEX
  8
0
 10
-170.41537821
 20
46.49429418
  0
VERTEX
  8
0
 10
-169.68356821
 20
46.74191117
  0
VERTEX
  8
0
 10
-168.93617039
 20
46.95414831
  0
VERTEX
  8
0
 10
-168.17417435
 20
47.13001598
  0
VERTEX
  8
0
 10
-167.39856969
 20
47.26852459
  0
VERTEX
  8
0
 10
-166.61034601
 20
47.36868453
  0
VERTEX
  8
0
 10
-165.81049291
 20
47.42950620
  0
VERTEX
  8
0
 10
-165.00000000
 20
47.45000000
  0
VERTEX
  8
0
 10
-164.18950709
 20
47.42950620
  0
VERTEX
  8
0
 10
-163.38965399
 20
47.36868453
  0
VERTEX
  8
0
 10
-162.60143031
 20
47.26852459
  0
VERTEX
  8
0
 10
-161.82582565
 20
47.13001598
  0
VERTEX
  8
0
 10
-161.06382961
 20
46.95414831
  0
VERTEX
  8
0
 10
-160.31643179
 20
46.74191117
  0
VERTEX
  8
0
 10
-159.58462179
 20
46.49429418
  0
VERTEX
  8
0
 10
-158.86938922
 20
46.21228693
  0
VERTEX
  8
0
 10
-158.17172368
 20
45.89687902
  0
VERTEX
  8
0
 10
-157.49261476
 20
45.54906005
  0
VERTEX
  8
0
 10
-156.83305208
 20
45.16981963
  0
VERTEX
  8
0
 10
-156.19402523
 20
44.76014736
  0
VERTEX
  8
0
 10
-155.57652381
 20
44.32103284
  0
VERTEX
  8
0
 10
-154.98153744
 20
43.85346567
  0
VERTEX
  8
0
 10
-154.41005570
 20
43.35843546
  0
VERTEX
  8
0
 10
-153.86306820
 20
42.83693180
  0
VERTEX
  8
0
 10
-153.34156454
 20
42.28994430
  0
VERTEX
  8
0
 10
-152.84653433
 20
41.71846256
  0
VERTEX
  8
0
 10
-152.37896716
 20
41.12347619
  0
VERTEX
  8
0
 10
-151.93985264
 20
40.50597477
  0
VERTEX
  8
0
 10
-151.53018037
 20
39.86694792
  0
VERTEX
  8
0
 10
-151.15093995
 20
39.20738524
  0
VERTEX
  8
0
 10
-150.80312098
 20
38.52827632
  0
VERTEX
  8
0
 10
-150.48771307
 20
37.83061078
  0
VERTEX
  8
0
 10
-150.20570582
 20
37.11537821
  0
VERTEX
  8
0
 10
-149.95808883
 20
36.38356821
  0
VERTEX
  8
0
 10
-149.74585169
 20
35.63617039
  0
VERTEX
  8
0
 10
-149.56998402
 20
34.87417435
  0
VERTEX
  8
0
 10
-149.43147541
 20
34.09856969
  0
VERTEX
  8
0
 10
-149.33131547
 20
33.31034601
  0
VERTEX
  8
0
 10
-149.27049380
 20
32.51049291
  0
VERTEX
  8
0
 10
-149.25000000
 20
31.70000000
  0
VERTEX
  8
0
 10
-149.27049380
 20
30.88950709
  0
VERTEX
  8
0
 10
-149.33131547
 20
30.08965399
  0
VERTEX
  8
0
 10
-149.43147541
 20
29.30143031
  0
VERTEX
  8
0
 10
-149.56998402
 20
28.52582565
  0
VERTEX
  8
0
 10
-149.74585169
 20
27.76382961
  0
VERTEX
  8
0
 10
-149.95808883
 20
27.01643179
  0
VERTEX
  8
0
 10
-150.20570582
 20
26.28462179
  0
VERTEX
  8
0
 10
-150.48771307
 20
25.56938922
  0
VERTEX
  8
0
 10
-150.80312098
 20
24.87172368
  0
VERTEX
  8
0
 10
-151.15093995
 20
24.19261476
  0
VERTEX
  8
0
 10
-151.53018037
 20
23.53305208
  0
VERTEX
  8
0
 10
-151.93985264
 20
22.89402523
  0
VERTEX
  8
0
 10
-152.37896716
 20
22.27652381
  0
VERTEX
  8
0
 10
-152.84653433
 20
21.68153744
  0
VERTEX
  8
0
 10
-153.34156454
 20
21.11005570
  0
VERTEX
  8
0
 10
-153.86306820
 20
20.56306820
  0
VERTEX
  8
0
 10
-154.41005570
 20
20.04156454
  0
VERTEX
  8
0
 10
-154.98153744
 20
19.54653433
  0
VERTEX
  8
0
 10
-155.57652381
 20
19.07896716
  0
VERTEX
  8
0
 10
-156.19402523
 20
18.63985264
  0
VERTEX
  8
0
 10
-156.83305208
 20
18.23018037
  0
VERTEX
  8
0
 10
-157.49261476
 20
17.85093995
  0
VERTEX
  8
0
 10
-158.17172368
 20
17.50312098
  0
VERTEX
  8
0
 10
-158.86938922
 20
17.18771307
  0
VERTEX
  8
0
 10
-159.58462179
 20
16.90570582
  0
VERTEX
  8
0
 10
-160.31643179
 20
16.65808883
  0
VERTEX
  8
0
 10
-161.06382961
 20
16.44585169
  0
VERTEX
  8
0
 10
-161.82582565
 20
16.26998402
  0
VERTEX
  8
0
 10
-162.60143031
 20
16.13147541
  0
VERTEX
  8
0
 10
-163.38965399
 20
16.03131547
  0
VERTEX
  8
0
 10
-164.18950709
 20
15.97049380
  0
VERTEX
  8
0
 10
-165.00000000
 20
15.95000000
  0
VERTEX
  8
0
 10
-165.81049291
 20
15.97049380
  0
VERTEX
  8
0
 10
-166.61034601
 20
16.03131547
  0
VERTEX
  8
0
 10
-167.39856969
 20
16.13147541
  0
VERTEX
  8
0
 10
-168.17417435
 20
16.26998402
  0
VERTEX
  8
0
 10
-168.93617039
 20
16.44585169
  0
VERTEX
  8
0
 10
-169.68356821
 20
16.65808883
  0
VERTEX
  8
0
 10
-170.41537821
 20
16.90570582
  0
VERTEX
  8
0
 10
-171.13061078
 20
17.18771307
  0
VERTEX
  8
0
 10
-171.82827632
 20
17.50312098
  0
VERTEX
  8
0
 10
-172.50738524
 20
17.85093995
  0
VERTEX
  8
0
 10
-173.16694792
 20
18.23018037
  0
VERTEX
  8
0
 10
-173.80597477
 20
18.63985264
  0
VERTEX
  8
0
 10
-174.42347619
 20
19.07896716
  0
VERTEX
  8
0
 10
-175.01846256
 20
19.54653433
  0
VERTEX
  8
0
 10
-175.58994430
 20
20.04156454
  0
VERTEX
  8
0
 10
-176.13693180
 20
20.56306820
  0
VERTEX
  8
0
 10
-176.65843546
 20
21.11005570
  0
VERTEX
  8
0
 10
-177.15346567
 20
21.68153744
  0
VERTEX
  8
0
 10
-177.62103284
 20
22.27652381
  0
VERTEX
  8
0
 10
-178.06014736
 20
22.89402523
  0
VERTEX
  8
0
 10
-178.46981963
 20
23.53305208
  0
VERTEX
  8
0
 10
-178.84906005
 20
24.19261476
  0
VERTEX
  8
0
 10
-179.19687902
 20
24.87172368
  0
VERTEX
  8
0
 10
-179.51228693
 20
25.56938922
  0
VERTEX
  8
0
 10
-179.79429418
 20
26.28462179
  0
VERTEX
  8
0
 10
-180.04191117
 20
27.01643179
  0
VERTEX
  8
0
 10
-180.25414831
 20
27.76382961
  0
VERTEX
  8
0
 10
-180.43001598
 20
28.52582565
  0
VERTEX
  8
0
 10
-180.56852459
 20
29.30143031
  0
VERTEX
  8
0
 10
-180.66868453
 20
30.08965399
  0
VERTEX
  8
0
 10
-180.72950620
 20
30.88950709
  0
VERTEX
  8
0
 10
-180.75000000
 20
31.70000000
  0
SEQEND
  0
POLYLINE
  8
Capa por Defecto
 66
   1
 39
0.000000
 70
    1
  0
VERTEX
  8
0
 10
149.25000000
 20
-31.70000000
  0
VERTEX
  8
0
 10
149.27049380
 20
-30.88950709
  0
VERTEX
  8
0
 10
149.33131547
 20
-30.08965399
  0
VERTEX
  8
0
 10
149.43147541
 20
-29.30143031
  0
VERTEX
  8
0
 10
149.56998402
 20
-28.52582565
  0
VERTEX
  8
0
 10
149.74585169
 20
-27.76382961
  0
VERTEX
  8
0
 10
149.95808883
 20
-27.01643179
  0
VERTEX
  8
0
 10
150.20570582
 20
-26.28462179
  0
VERTEX
  8
0
 10
150.48771307
 20
-25.56938922
  0
VERTEX
  8
0
 10
150.80312098
 20
-24.87172368
  0
VERTEX
  8
0
 10
151.15093995
 20
-24.19261476
  0
VERTEX
  8
0
 10
151.53018037
 20
-23.53305208
  0
VERTEX
  8
0
 10
151.93985264
 20
-22.89402523
  0
VERTEX
  8
0
 10
152.37896716
 20
-22.27652381
  0
VERTEX
  8
0
 10
152.84653433
 20
-21.68153744
  0
VERTEX
  8
0
 10
153.34156454
 20
-21.11005570
  0
VERTEX
  8
0
 10
153.86306820
 20
-20.56306820
  0
VERTEX
  8
0
 10
154.41005570
 20
-20.04156454
  0
VERTEX
  8
0
 10
154.98153744
 20
-19.54653433
  0
VERTEX
  8
0
 10
155.57652381
 20
-19.07896716
  0
VERTEX
  8
0
 10
156.19402523
 20
-18.63985264
  0
VERTEX
  8
0
 10
156.83305208
 20
-18.23018037
  0
VERTEX
  8
0
 10
157.49261476
 20
-17.85093995
  0
VERTEX
  8
0
 10
158.17172368
 20
-17.50312098
  0
VERTEX
  8
0
 10
158.86938922
 20
-17.18771307
  0
VERTEX
  8
0
 10
159.58462179
 20
-16.90570582
  0
VERTEX
  8
0
 10
160.31643179
 20
-16.65808883
  0
VERTEX
  8
0
 10
161.06382961
 20
-16.44585169
  0
VERTEX
  8
0
 10
161.82582565
 20
-16.26998402
  0
VERTEX
  8
0
 10
162.60143031
 20
-16.13147541
  0
VERTEX
  8
0
 10
163.38965399
 20
-16.03131547
  0
VERTEX
  8
0
 10
164.18950709
 20
-15.97049380
  0
VERTEX
  8
0
 10
165.00000000
 20
-15.95000000
  0
VERTEX
  8
0
 10
165.81049291
 20
-15.97049380
  0
VERTEX
  8
0
 10
166.61034601
 20
-16.03131547
  0
VERTEX
  8
0
 10
167.39856969
 20
-16.13147541
  0
VERTEX
  8
0
 10
168.17417435
 20
-16.26998402
  0
VERTEX
  8
0
 10
168.93617039
 20
-16.44585169
  0
VERTEX
  8
0
 10
169.68356821
 20
-16.65808883
  0
VERTEX
  8
0
 10
170.41537821
 20
-16.90570582
  0
VERTEX
  8
0
 10
171.13061078
 20
-17.18771307
  0
VERTEX
  8
0
 10
171.82827632
 20
-17.50312098
  0
VERTEX
  8
0
 10
172.50738524
 20
-17.85093995
  0
VERTEX
  8
0
 10
173.16694792
 20
-18.23018037
  0
VERTEX
  8
0
 10
173.80597477
 20
-18.63985264
  0
VERTEX
  8
0
 10
174.42347619
 20
-19.07896716
  0
VERTEX
  8
0
 10
175.01846256
 20
-19.54653433
  0
VERTEX
  8
0
 10
175.58994430
 20
-20.04156454
  0
VERTEX
  8
0
 10
176.13693180
 20
-20.56306820
  0
VERTEX
  8
0
 10
176.65843546
 20
-21.11005570
  0
VERTEX
  8
0
 10
177.15346567
 20
-21.68153744
  0
VERTEX
  8
0
 10
177.62103284
 20
-22.27652381
  0
VERTEX
  8
0
 10
178.06014736
 20
-22.89402523
  0
VERTEX
  8
0
 10
178.46981963
 20
-23.53305208
  0
VERTEX
  8
0
 10
178.84906005
 20
-24.19261476
  0
VERTEX
  8
0
 10
179.19687902
 20
-24.87172368
  0
VERTEX
  8
0
 10
179.51228693
 20
-25.56938922
  0
VERTEX
  8
0
 10
179.79429418
 20
-26.28462179
  0
VERTEX
  8
0
 10
180.04191117
 20
-27.01643179
  0
VERTEX
  8
0
 10
180.25414831
 20
-27.76382961
  0
VERTEX
  8
0
 10
180.43001598
 20
-28.52582565
  0
VERTEX
  8
0
 10
180.56852459
 20
-29.30143031
  0
VERTEX
  8
0
 10
180.66868453
 20
-30.08965399
  0
VERTEX
  8
0
 10
180.72950620
 20
-30.88950709
  0
VERTEX
  8
0
 10
180.75000000
 20
-31.70000000
  0
VERTEX
  8
0
 10
180.72950620
 20
-32.51049291
  0
VERTEX
  8
0
 10
180.66868453
 20
-33.31034601
  0
VERTEX
  8
0
 10
180.56852459
 20
-34.09856969
  0
VERTEX
  8
0
 10
180.43001598
 20
-34.87417435
  0
VERTEX
  8
0
 10
180.25414831
 20
-35.63617039
  0
VERTEX
  8
0
 10
180.04191117
 20
-36.38356821
  0
VERTEX
  8
0
 10
179.79429418
 20
-37.11537821
  0
VERTEX
  8
0
 10
179.51228693
 20
-37.83061078
  0
VERTEX
  8
0
 10
179.19687902
 20
-38.52827632
  0
VERTEX
  8
0
 10
178.84906005
 20
-39.20738524
  0
VERTEX
  8
0
 10
178.46981963
 20
-39.86694792
  0
VERTEX
  8
0
 10
178.06014736
 20
-40.50597477
  0
VERTEX
  8
0
 10
177.62103284
 20
-41.12347619
  0
VERTEX
  8
0
 10
177.15346567
 20
-41.71846256
  0
VERTEX
  8
0
 10
176.65843546
 20
-42.28994430
  0
VERTEX
  8
0
 10
176.13693180
 20
-42.83693180
  0
VERTEX
  8
0
 10
175.58994430
 20
-43.35843546
  0
VERTEX
  8
0
 10
175.01846256
 20
-43.85346567
  0
VERTEX
  8
0
 10
174.42347619
 20
-44.32103284
  0
VERTEX
  8
0
 10
173.80597477
 20
-44.76014736
  0
VERTEX
  8
0
 10
173.16694792
 20
-45.16981963
  0
VERTEX
  8
0
 10
172.50738524
 20
-45.54906005
  0
VERTEX
  8
0
 10
171.82827632
 20
-45.89687902
  0
VERTEX
  8
0
 10
171.13061078
 20
-46.21228693
  0
VERTEX
  8
0
 10
170.41537821
 20
-46.49429418
  0
VERTEX
  8
0
 10
169.68356821
 20
-46.74191117
  0
VERTEX
  8
0
 10
168.93617039
 20
-46.95414831
  0
VERTEX
  8
0
 10
168.17417435
 20
-47.13001598
  0
VERTEX
  8
0
 10
167.39856969
 20
-47.26852459
  0
VERTEX
  8
0
 10
166.61034601
 20
-47.36868453
  0
VERTEX
  8
0
 10
165.81049291
 20
-47.42950620
  0
VERTEX
  8
0
 10
165.00000000
 20
-47.45000000
  0
VERTEX
  8
0
 10
164.18950709
 20
-47.42950620
  0
VERTEX
  8
0
 10
163.38965399
 20
-47.36868453
  0
VERTEX
  8
0
 10
162.60143031
 20
-47.26852459
  0
VERTEX
  8
0
 10
161.82582565
 20
-47.13001598
  0
VERTEX
  8
0
 10
161.06382961
 20
-46.95414831
  0
VERTEX
  8
0
 10
160.31643179
 20
-46.74191117
  0
VERTEX
  8
0
 10
159.58462179
 20
-46.49429418
  0
VERTEX
  8
0
 10
158.86938922
 20
-46.21228693
  0
VERTEX
  8
0
 10
158.17172368
 20
-45.89687902
  0
VERTEX
  8
0
 10
157.49261476
 20
-45.54906005
  0
VERTEX
  8
0
 10
156.83305208
 20
-45.16981963
  0
VERTEX
  8
0
 10
156.19402523
 20
-44.76014736
  0
VERTEX
  8
0
 10
155.57652381
 20
-44.32103284
  0
VERTEX
  8
0
 10
154.98153744
 20
-43.85346567
  0
VERTEX
  8
0
 10
154.41005570
 20
-43.35843546
  0
VERTEX
  8
0
 10
153.86306820
 20
-42.83693180
  0
VERTEX
  8
0
 10
153.34156454
 20
-42.28994430
  0
VERTEX
  8
0
 10
152.84653433
 20
-41.71846256
  0
VERTEX
  8
0
 10
152.37896716
 20
-41.12347619
  0
VERTEX
  8
0
 10
151.93985264
 20
-40.50597477
  0
VERTEX
  8
0
 10
151.53018037
 20
-39.86694792
  0
VERTEX
  8
0
 10
151.15093995
 20
-39.20738524
  0
VERTEX
  8
0
 10
150.80312098
 20
-38.52827632
  0
VERTEX
  8
0
 10
150.48771307
 20
-37.83061078
  0
VERTEX
  8
0
 10
150.20570582
 20
-37.11537821
  0
VERTEX
  8
0
 10
149.95808883
 20
-36.38356821
  0
VERTEX
  8
0
 10
149.74585169
 20
-35.63617039
  0
VERTEX
  8
0
 10
149.56998402
 20
-34.87417435
  0
VERTEX
  8
0
 10
149.43147541
 20
-34.09856969
  0
VERTEX
  8
0
 10
149.33131547
 20
-33.31034601
  0
VERTEX
  8
0
 10
149.27049380
 20
-32.51049291
  0
VERTEX
  8
0
 10
149.25000000
 20
-31.70000000
  0
SEQEND
  0
POLYLINE
  8
Capa por Defecto
 66
   1
 39
0.000000
 70
    1
  0
VERTEX
  8
0
 10
-199.75000000
 20
-57.64000000
  0
VERTEX
  8
0
 10
199.75000000
 20
-57.64000000
  0
VERTEX
  8
0
 10
199.75000000
 20
57.64000000
  0
VERTEX
  8
0
 10
-199.75000000
 20
57.64000000
  0
VERTEX
  8
0
 10
-199.75000000
 20
-57.64000000
  0
SEQEND
  0
POLYLINE
  8
Capa por Defecto
 66
   1
 39
0.000000
 70
    0
  0
VERTEX
  8
0
 10
199.75000000
 20
31.00000000
  0
VERTEX
  8
0
 10
184.98764755
 20
31.00000000
  0
VERTEX
  8
0
 10
180.73440603
 20
31.00000000
  0
VERTEX
  8
0
 10
177.98130978
 20
31.00000000
  0
VERTEX
  8
0
 10
177.14593589
 20
31.00000000
  0
VERTEX
  8
0
 10
177.13803751
 20
31.00000000
  0
VERTEX
  8
0
 10
174.42433347
 20
31.00000000
  0
VERTEX
  8
0
 10
170.45586842
 20
31.00000000
  0
VERTEX
  8
0
 10
159.54413158
 20
31.00000000
  0
VERTEX
  8
0
 10
155.57566653
 20
31.00000000
  0
VERTEX
  8
0
 10
152.02091978
 20
31.00000000
  0
VERTEX
  8
0
 10
149.26559397
 20
31.00000000
  0
VERTEX
  8
0
 10
146.12990753
 20
31.00000000
  0
VERTEX
  8
0
 10
146.12200916
 20
31.00000000
  0
VERTEX
  8
0
 10
145.01235245
 20
31.00000000
  0
VERTEX
  8
0
 10
129.98764755
 20
31.00000000
  0
VERTEX
  8
0
 10
123.26794504
 20
31.00000000
  0
VERTEX
  8
0
 10
123.26004667
 20
31.00000000
  0
VERTEX
  8
0
 10
122.98130961
 20
31.00000000
  0
VERTEX
  8
0
 10
119.42433347
 20
31.00000000
  0
VERTEX
  8
0
 10
115.45586842
 20
31.00000000
  0
VERTEX
  8
0
 10
104.54413158
 20
31.00000000
  0
VERTEX
  8
0
 10
100.57566653
 20
31.00000000
  0
VERTEX
  8
0
 10
97.00443871
 20
31.00000000
  0
VERTEX
  8
0
 10
92.25191669
 20
31.00000000
  0
VERTEX
  8
0
 10
92.24401832
 20
31.00000000
  0
VERTEX
  8
0
 10
90.01235245
 20
31.00000000
  0
VERTEX
  8
0
 10
74.98764755
 20
31.00000000
  0
VERTEX
  8
0
 10
69.38995420
 20
31.00000000
  0
VERTEX
  8
0
 10
69.38205583
 20
31.00000000
  0
VERTEX
  8
0
 10
67.98130958
 20
31.00000000
  0
VERTEX
  8
0
 10
64.42433347
 20
31.00000000
  0
VERTEX
  8
0
 10
60.45586842
 20
31.00000000
  0
VERTEX
  8
0
 10
49.54413158
 20
31.00000000
  0
VERTEX
  8
0
 10
45.57566653
 20
31.00000000
  0
VERTEX
  8
0
 10
41.99759236
 20
31.00000000
  0
VERTEX
  8
0
 10
38.37392585
 20
31.00000000
  0
VERTEX
  8
0
 10
38.36602748
 20
31.00000000
  0
VERTEX
  8
0
 10
35.01235245
 20
31.00000000
  0
VERTEX
  8
0
 10
19.98764755
 20
31.00000000
  0
VERTEX
  8
0
 10
15.51196336
 20
31.00000000
  0
VERTEX
  8
0
 10
15.50406499
 20
31.00000000
  0
VERTEX
  8
0
 10
12.98130975
 20
31.00000000
  0
VERTEX
  8
0
 10
9.42433347
 20
31.00000000
  0
VERTEX
  8
0
 10
5.45586842
 20
31.00000000
  0
VERTEX
  8
0
 10
-5.45586842
 20
31.00000000
  0
VERTEX
  8
0
 10
-9.42433347
 20
31.00000000
  0
VERTEX
  8
0
 10
-12.99680514
 20
31.00000000
  0
VERTEX
  8
0
 10
-15.50406499
 20
31.00000000
  0
VERTEX
  8
0
 10
-15.51196336
 20
31.00000000
  0
VERTEX
  8
0
 10
-19.98764755
 20
31.00000000
  0
VERTEX
  8
0
 10
-35.01235245
 20
31.00000000
  0
VERTEX
  8
0
 10
-38.36602748
 20
31.00000000
  0
VERTEX
  8
0
 10
-38.37392585
 20
31.00000000
  0
VERTEX
  8
0
 10
-42.01869040
 20
31.00000000
  0
VERTEX
  8
0
 10
-45.57566653
 20
31.00000000
  0
VERTEX
  8
0
 10
-49.54413158
 20
31.00000000
  0
VERTEX
  8
0
 10
-60.45586842
 20
31.00000000
  0
VERTEX
  8
0
 10
-64.42433347
 20
31.00000000
  0
VERTEX
  8
0
 10
-67.99667272
 20
31.00000000
  0
VERTEX
  8
0
 10
-69.38205583
 20
31.00000000
  0
VERTEX
  8
0
 10
-69.38995420
 20
31.00000000
  0
VERTEX
  8
0
 10
-74.98764755
 20
31.00000000
  0
VERTEX
  8
0
 10
-90.01235245
 20
31.00000000
  0
VERTEX
  8
0
 10
-92.24401832
 20
31.00000000
  0
VERTEX
  8
0
 10
-92.25191669
 20
31.00000000
  0
VERTEX
  8
0
 10
-97.01869059
 20
31.00000000
  0
VERTEX
  8
0
 10
-100.57566653
 20
31.00000000
  0
VERTEX
  8
0
 10
-104.54413158
 20
31.00000000
  0
VERTEX
  8
0
 10
-115.45586842
 20
31.00000000
  0
VERTEX
  8
0
 10
-119.42433347
 20
31.00000000
  0
VERTEX
  8
0
 10
-122.98136852
 20
31.00000000
  0
VERTEX
  8
0
 10
-123.26004667
 20
31.00000000
  0
VERTEX
  8
0
 10
-123.26794504
 20
31.00000000
  0
VERTEX
  8
0
 10
-129.98764755
 20
31.00000000
  0
VERTEX
  8
0
 10
-145.01235245
 20
31.00000000
  0
VERTEX
  8
0
 10
-146.12200916
 20
31.00000000
  0
VERTEX
  8
0
 10
-146.12990753
 20
31.00000000
  0
VERTEX
  8
0
 10
-149.26559397
 20
31.00000000
  0
VERTEX
  8
0
 10
-152.01868962
 20
31.00000000
  0
VERTEX
  8
0
 10
-155.57566653
 20
31.00000000
  0
VERTEX
  8
0
 10
-159.54413158
 20
31.00000000
  0
VERTEX
  8
0
 10
-161.63397252
 20
31.00000000
  0
VERTEX
  8
0
 10
-170.45586842
 20
31.00000000
  0
VERTEX
  8
0
 10
-174.42433347
 20
31.00000000
  0
VERTEX
  8
0
 10
-177.13803751
 20
31.00000000
  0
VERTEX
  8
0
 10
-177.14593589
 20
31.00000000
  0
VERTEX
  8
0
 10
-177.94946669
 20
31.00000000
  0
VERTEX
  8
0
 10
-180.73440603
 20
31.00000000
  0
VERTEX
  8
0
 10
-184.98764755
 20
31.00000000
  0
VERTEX
  8
0
 10
-199.75000000
 20
31.00000000
  0
SEQEND
  0
POLYLINE
  8
Capa por Defecto
 66
   1
 39
0.000000
 70
    0
  0
VERTEX
  8
0
 10
-199.75000000
 20
-31.00000000
  0
VERTEX
  8
0
 10
-184.98764755
 20
-31.00000000
  0
VERTEX
  8
0
 10
-180.73440603
 20
-31.00000000
  0
VERTEX
  8
0
 10
-177.53868768
 20
-31.00000000
  0
VERTEX
  8
0
 10
-177.14593589
 20
-31.00000000
  0
VERTEX
  8
0
 10
-177.13803751
 20
-31.00000000
  0
VERTEX
  8
0
 10
-174.42433347
 20
-31.00000000
  0
VERTEX
  8
0
 10
-170.45586842
 20
-31.00000000
  0
VERTEX
  8
0
 10
-161.63397252
 20
-31.00000000
  0
VERTEX
  8
0
 10
-159.54413158
 20
-31.00000000
  0
VERTEX
  8
0
 10
-155.57566653
 20
-31.00000000
  0
VERTEX
  8
0
 10
-152.01907573
 20
-31.00000000
  0
VERTEX
  8
0
 10
-149.26559397
 20
-31.00000000
  0
VERTEX
  8
0
 10
-146.12990753
 20
-31.00000000
  0
VERTEX
  8
0
 10
-146.12200916
 20
-31.00000000
  0
VERTEX
  8
0
 10
-145.01235245
 20
-31.00000000
  0
VERTEX
  8
0
 10
-129.98764755
 20
-31.00000000
  0
VERTEX
  8
0
 10
-123.26794504
 20
-31.00000000
  0
VERTEX
  8
0
 10
-123.26004667
 20
-31.00000000
  0
VERTEX
  8
0
 10
-122.98266089
 20
-31.00000000
  0
VERTEX
  8
0
 10
-119.42433347
 20
-31.00000000
  0
VERTEX
  8
0
 10
-115.45586842
 20
-31.00000000
  0
VERTEX
  8
0
 10
-104.54413158
 20
-31.00000000
  0
VERTEX
  8
0
 10
-100.57566653
 20
-31.00000000
  0
VERTEX
  8
0
 10
-97.01910375
 20
-31.00000000
  0
VERTEX
  8
0
 10
-92.25191669
 20
-31.00000000
  0
VERTEX
  8
0
 10
-92.24401832
 20
-31.00000000
  0
VERTEX
  8
0
 10
-90.01235245
 20
-31.00000000
  0
VERTEX
  8
0
 10
-74.98764755
 20
-31.00000000
  0
VERTEX
  8
0
 10
-69.38995420
 20
-31.00000000
  0
VERTEX
  8
0
 10
-69.38205583
 20
-31.00000000
  0
VERTEX
  8
0
 10
-67.98266089
 20
-31.00000000
  0
VERTEX
  8
0
 10
-64.42433347
 20
-31.00000000
  0
VERTEX
  8
0
 10
-60.45586842
 20
-31.00000000
  0
VERTEX
  8
0
 10
-49.54413158
 20
-31.00000000
  0
VERTEX
  8
0
 10
-45.57566653
 20
-31.00000000
  0
VERTEX
  8
0
 10
-42.01857487
 20
-31.00000000
  0
VERTEX
  8
0
 10
-38.37392585
 20
-31.00000000
  0
VERTEX
  8
0
 10
-38.36602748
 20
-31.00000000
  0
VERTEX
  8
0
 10
-35.01235245
 20
-31.00000000
  0
VERTEX
  8
0
 10
-19.98764755
 20
-31.00000000
  0
VERTEX
  8
0
 10
-15.51196336
 20
-31.00000000
  0
VERTEX
  8
0
 10
-15.50406499
 20
-31.00000000
  0
VERTEX
  8
0
 10
-12.98232758
 20
-31.00000000
  0
VERTEX
  8
0
 10
-9.42433347
 20
-31.00000000
  0
VERTEX
  8
0
 10
-5.45586842
 20
-31.00000000
  0
VERTEX
  8
0
 10
5.45586842
 20
-31.00000000
  0
VERTEX
  8
0
 10
9.42433347
 20
-31.00000000
  0
VERTEX
  8
0
 10
12.98588243
 20
-31.00000000
  0
VERTEX
  8
0
 10
15.50406499
 20
-31.00000000
  0
VERTEX
  8
0
 10
15.51196336
 20
-31.00000000
  0
VERTEX
  8
0
 10
19.98764755
 20
-31.00000000
  0
VERTEX
  8
0
 10
35.01235245
 20
-31.00000000
  0
VERTEX
  8
0
 10
38.36602748
 20
-31.00000000
  0
VERTEX
  8
0
 10
38.37392585
 20
-31.00000000
  0
VERTEX
  8
0
 10
42.01767277
 20
-31.00000000
  0
VERTEX
  8
0
 10
45.57566653
 20
-31.00000000
  0
VERTEX
  8
0
 10
49.54413158
 20
-31.00000000
  0
VERTEX
  8
0
 10
60.45586842
 20
-31.00000000
  0
VERTEX
  8
0
 10
64.42433347
 20
-31.00000000
  0
VERTEX
  8
0
 10
67.98116244
 20
-31.00000000
  0
VERTEX
  8
0
 10
69.38205583
 20
-31.00000000
  0
VERTEX
  8
0
 10
69.38995420
 20
-31.00000000
  0
VERTEX
  8
0
 10
74.98764755
 20
-31.00000000
  0
VERTEX
  8
0
 10
90.01235245
 20
-31.00000000
  0
VERTEX
  8
0
 10
92.24401832
 20
-31.00000000
  0
VERTEX
  8
0
 10
92.25191669
 20
-31.00000000
  0
VERTEX
  8
0
 10
97.14112937
 20
-31.00000000
  0
VERTEX
  8
0
 10
100.57566653
 20
-31.00000000
  0
VERTEX
  8
0
 10
104.54413158
 20
-31.00000000
  0
VERTEX
  8
0
 10
115.45586842
 20
-31.00000000
  0
VERTEX
  8
0
 10
119.42433347
 20
-31.00000000
  0
VERTEX
  8
0
 10
122.97982497
 20
-31.00000000
  0
VERTEX
  8
0
 10
123.26004667
 20
-31.00000000
  0
VERTEX
  8
0
 10
123.26794504
 20
-31.00000000
  0
VERTEX
  8
0
 10
129.98764755
 20
-31.00000000
  0
VERTEX
  8
0
 10
145.01235245
 20
-31.00000000
  0
VERTEX
  8
0
 10
146.12200916
 20
-31.00000000
  0
VERTEX
  8
0
 10
146.12990753
 20
-31.00000000
  0
VERTEX
  8
0
 10
149.26559397
 20
-31.00000000
  0
VERTEX
  8
0
 10
152.14112937
 20
-31.00000000
  0
VERTEX
  8
0
 10
155.57566653
 20
-31.00000000
  0
VERTEX
  8
0
 10
159.54413158
 20
-31.00000000
  0
VERTEX
  8
0
 10
170.45586842
 20
-31.00000000
  0
VERTEX
  8
0
 10
174.42433347
 20
-31.00000000
  0
VERTEX
  8
0
 10
177.13803751
 20
-31.00000000
  0
VERTEX
  8
0
 10
177.14593589
 20
-31.00000000
  0
VERTEX
  8
0
 10
177.97978793
 20
-31.00000000
  0
VERTEX
  8
0
 10
180.73440603
 20
-31.00000000
  0
VERTEX
  8
0
 10
184.98764755
 20
-31.00000000
  0
VERTEX
  8
0
 10
199.75000000
 20
-31.00000000
  0
SEQEND
  0
POLYLINE
  8
Capa por Defecto
 66
   1
 39
0.000000
 70
    1
  0
VERTEX
  8
0
 10
94.25000000
 20
31.70000000
  0
VERTEX
  8
0
 10
94.27049380
 20
32.51049291
  0
VERTEX
  8
0
 10
94.33131547
 20
33.31034601
  0
VERTEX
  8
0
 10
94.43147541
 20
34.09856969
  0
VERTEX
  8
0
 10
94.56998402
 20
34.87417435
  0
VERTEX
  8
0
 10
94.74585169
 20
35.63617039
  0
VERTEX
  8
0
 10
94.95808883
 20
36.38356821
  0
VERTEX
  8
0
 10
95.20570582
 20
37.11537821
  0
VERTEX
  8
0
 10
95.48771307
 20
37.83061078
  0
VERTEX
  8
0
 10
95.80312098
 20
38.52827632
  0
VERTEX
  8
0
 10
96.15093995
 20
39.20738524
  0
VERTEX
  8
0
 10
96.53018037
 20
39.86694792
  0
VERTEX
  8
0
 10
96.93985264
 20
40.50597477
  0
VERTEX
  8
0
 10
97.37896716
 20
41.12347619
  0
VERTEX
  8
0
 10
97.84653433
 20
41.71846256
  0
VERTEX
  8
0
 10
98.34156454
 20
42.28994430
  0
VERTEX
  8
0
 10
98.86306820
 20
42.83693180
  0
VERTEX
  8
0
 10
99.41005570
 20
43.35843546
  0
VERTEX
  8
0
 10
99.98153744
 20
43.85346567
  0
VERTEX
  8
0
 10
100.57652381
 20
44.32103284
  0
VERTEX
  8
0
 10
101.19402523
 20
44.76014736
  0
VERTEX
  8
0
 10
101.83305208
 20
45.16981963
  0
VERTEX
  8
0
 10
102.49261476
 20
45.54906005
  0
VERTEX
  8
0
 10
103.17172368
 20
45.89687902
  0
VERTEX
  8
0
 10
103.86938922
 20
46.21228693
  0
VERTEX
  8
0
 10
104.58462179
 20
46.49429418
  0
VERTEX
  8
0
 10
105.31643179
 20
46.74191117
  0
VERTEX
  8
0
 10
106.06382961
 20
46.95414831
  0
VERTEX
  8
0
 10
106.82582565
 20
47.13001598
  0
VERTEX
  8
0
 10
107.60143031
 20
47.26852459
  0
VERTEX
  8
0
 10
108.38965399
 20
47.36868453
  0
VERTEX
  8
0
 10
109.18950709
 20
47.42950620
  0
VERTEX
  8
0
 10
110.00000000
 20
47.45000000
  0
VERTEX
  8
0
 10
110.81049291
 20
47.42950620
  0
VERTEX
  8
0
 10
111.61034601
 20
47.36868453
  0
VERTEX
  8
0
 10
112.39856969
 20
47.26852459
  0
VERTEX
  8
0
 10
113.17417435
 20
47.13001598
  0
VERTEX
  8
0
 10
113.93617039
 20
46.95414831
  0
VERTEX
  8
0
 10
114.68356821
 20
46.74191117
  0
VERTEX
  8
0
 10
115.41537821
 20
46.49429418
  0
VERTEX
  8
0
 10
116.13061078
 20
46.21228693
  0
VERTEX
  8
0
 10
116.82827632
 20
45.89687902
  0
VERTEX
  8
0
 10
117.50738524
 20
45.54906005
  0
VERTEX
  8
0
 10
118.16694792
 20
45.16981963
  0
VERTEX
  8
0
 10
118.80597477
 20
44.76014736
  0
VERTEX
  8
0
 10
119.42347619
 20
44.32103284
  0
VERTEX
  8
0
 10
120.01846256
 20
43.85346567
  0
VERTEX
  8
0
 10
120.58994430
 20
43.35843546
  0
VERTEX
  8
0
 10
121.13693180
 20
42.83693180
  0
VERTEX
  8
0
 10
121.65843546
 20
42.28994430
  0
VERTEX
  8
0
 10
122.15346567
 20
41.71846256
  0
VERTEX
  8
0
 10
122.62103284
 20
41.12347619
  0
VERTEX
  8
0
 10
123.06014736
 20
40.50597477
  0
VERTEX
  8
0
 10
123.46981963
 20
39.86694792
  0
VERTEX
  8
0
 10
123.84906005
 20
39.20738524
  0
VERTEX
  8
0
 10
124.19687902
 20
38.52827632
  0
VERTEX
  8
0
 10
124.51228693
 20
37.83061078
  0
VERTEX
  8
0
 10
124.79429418
 20
37.11537821
  0
VERTEX
  8
0
 10
125.04191117
 20
36.38356821
  0
VERTEX
  8
0
 10
125.25414831
 20
35.63617039
  0
VERTEX
  8
0
 10
125.43001598
 20
34.87417435
  0
VERTEX
  8
0
 10
125.56852459
 20
34.09856969
  0
VERTEX
  8
0
 10
125.66868453
 20
33.31034601
  0
VERTEX
  8
0
 10
125.72950620
 20
32.51049291
  0
VERTEX
  8
0
 10
125.75000000
 20
31.70000000
  0
VERTEX
  8
0
 10
125.72950620
 20
30.88950709
  0
VERTEX
  8
0
 10
125.66868453
 20
30.08965399
  0
VERTEX
  8
0
 10
125.56852459
 20
29.30143031
  0
VERTEX
  8
0
 10
125.43001598
 20
28.52582565
  0
VERTEX
  8
0
 10
125.25414831
 20
27.76382961
  0
VERTEX
  8
0
 10
125.04191117
 20
27.01643179
  0
VERTEX
  8
0
 10
124.79429418
 20
26.28462179
  0
VERTEX
  8
0
 10
124.51228693
 20
25.56938922
  0
VERTEX
  8
0
 10
124.19687902
 20
24.87172368
  0
VERTEX
  8
0
 10
123.84906005
 20
24.19261476
  0
VERTEX
  8
0
 10
123.46981963
 20
23.53305208
  0
VERTEX
  8
0
 10
123.06014736
 20
22.89402523
  0
VERTEX
  8
0
 10
122.62103284
 20
22.27652381
  0
VERTEX
  8
0
 10
122.15346567
 20
21.68153744
  0
VERTEX
  8
0
 10
121.65843546
 20
21.11005570
  0
VERTEX
  8
0
 10
121.13693180
 20
20.56306820
  0
VERTEX
  8
0
 10
120.58994430
 20
20.04156454
  0
VERTEX
  8
0
 10
120.01846256
 20
19.54653433
  0
VERTEX
  8
0
 10
119.42347619
 20
19.07896716
  0
VERTEX
  8
0
 10
118.80597477
 20
18.63985264
  0
VERTEX
  8
0
 10
118.16694792
 20
18.23018037
  0
VERTEX
  8
0
 10
117.50738524
 20
17.85093995
  0
VERTEX
  8
0
 10
116.82827632
 20
17.50312098
  0
VERTEX
  8
0
 10
116.13061078
 20
17.18771307
  0
VERTEX
  8
0
 10
115.41537821
 20
16.90570582
  0
VERTEX
  8
0
 10
114.68356821
 20
16.65808883
  0
VERTEX
  8
0
 10
113.93617039
 20
16.44585169
  0
VERTEX
  8
0
 10
113.17417435
 20
16.26998402
  0
VERTEX
  8
0
 10
112.39856969
 20
16.13147541
  0
VERTEX
  8
0
 10
111.61034601
 20
16.03131547
  0
VERTEX
  8
0
 10
110.81049291
 20
15.97049380
  0
VERTEX
  8
0
 10
110.00000000
 20
15.95000000
  0
VERTEX
  8
0
 10
109.18950709
 20
15.97049380
  0
VERTEX
  8
0
 10
108.38965399
 20
16.03131547
  0
VERTEX
  8
0
 10
107.60143031
 20
16.13147541
  0
VERTEX
  8
0
 10
106.82582565
 20
16.26998402
  0
VERTEX
  8
0
 10
106.06382961
 20
16.44585169
  0
VERTEX
  8
0
 10
105.31643179
 20
16.65808883
  0
VERTEX
  8
0
 10
104.58462179
 20
16.90570582
  0
VERTEX
  8
0
 10
103.86938922
 20
17.18771307
  0
VERTEX
  8
0
 10
103.17172368
 20
17.50312098
  0
VERTEX
  8
0
 10
102.49261476
 20
17.85093995
  0
VERTEX
  8
0
 10
101.83305208
 20
18.23018037
  0
VERTEX
  8
0
 10
101.19402523
 20
18.63985264
  0
VERTEX
  8
0
 10
100.57652381
 20
19.07896716
  0
VERTEX
  8
0
 10
99.98153744
 20
19.54653433
  0
VERTEX
  8
0
 10
99.41005570
 20
20.04156454
  0
VERTEX
  8
0
 10
98.86306820
 20
20.56306820
  0
VERTEX
  8
0
 10
98.34156454
 20
21.11005570
  0
VERTEX
  8
0
 10
97.84653433
 20
21.68153744
  0
VERTEX
  8
0
 10
97.37896716
 20
22.27652381
  0
VERTEX
  8
0
 10
96.93985264
 20
22.89402523
  0
VERTEX
  8
0
 10
96.53018037
 20
23.53305208
  0
VERTEX
  8
0
 10
96.15093995
 20
24.19261476
  0
VERTEX
  8
0
 10
95.80312098
 20
24.87172368
  0
VERTEX
  8
0
 10
95.48771307
 20
25.56938922
  0
VERTEX
  8
0
 10
95.20570582
 20
26.28462179
  0
VERTEX
  8
0
 10
94.95808883
 20
27.01643179
  0
VERTEX
  8
0
 10
94.74585169
 20
27.76382961
  0
VERTEX
  8
0
 10
94.56998402
 20
28.52582565
  0
VERTEX
  8
0
 10
94.43147541
 20
29.30143031
  0
VERTEX
  8
0
 10
94.33131547
 20
30.08965399
  0
VERTEX
  8
0
 10
94.27049380
 20
30.88950709
  0
VERTEX
  8
0
 10
94.25000000
 20
31.70000000
  0
SEQEND
  0
POLYLINE
  8
Capa por Defecto
 66
   1
 39
0.000000
 70
    1
  0
VERTEX
  8
0
 10
-20.00000000
 20
0.00000000
  0
VERTEX
  8
0
 10
-19.97397612
 20
-1.02919735
  0
VERTEX
  8
0
 10
-19.89674225
 20
-2.04488382
  0
VERTEX
  8
0
 10
-19.76955503
 20
-3.04580278
  0
VERTEX
  8
0
 10
-19.59367108
 20
-4.03069759
  0
VERTEX
  8
0
 10
-19.37034706
 20
-4.99831161
  0
VERTEX
  8
0
 10
-19.10083959
 20
-5.94738821
  0
VERTEX
  8
0
 10
-18.78640531
 20
-6.87667074
  0
VERTEX
  8
0
 10
-18.42830086
 20
-7.78490258
  0
VERTEX
  8
0
 10
-18.02778288
 20
-8.67082708
  0
VERTEX
  8
0
 10
-17.58610800
 20
-9.53318760
  0
VERTEX
  8
0
 10
-17.10453287
 20
-10.37072752
  0
VERTEX
  8
0
 10
-16.58431411
 20
-11.18219018
  0
VERTEX
  8
0
 10
-16.02670837
 20
-11.96631897
  0
VERTEX
  8
0
 10
-15.43297229
 20
-12.72185722
  0
VERTEX
  8
0
 10
-14.80436249
 20
-13.44754832
  0
VERTEX
  8
0
 10
-14.14213562
 20
-14.14213562
  0
VERTEX
  8
0
 10
-13.44754832
 20
-14.80436249
  0
VERTEX
  8
0
 10
-12.72185722
 20
-15.43297229
  0
VERTEX
  8
0
 10
-11.96631897
 20
-16.02670837
  0
VERTEX
  8
0
 10
-11.18219018
 20
-16.58431411
  0
VERTEX
  8
0
 10
-10.37072752
 20
-17.10453287
  0
VERTEX
  8
0
 10
-9.53318760
 20
-17.58610800
  0
VERTEX
  8
0
 10
-8.67082708
 20
-18.02778288
  0
VERTEX
  8
0
 10
-7.78490258
 20
-18.42830086
  0
VERTEX
  8
0
 10
-6.87667074
 20
-18.78640531
  0
VERTEX
  8
0
 10
-5.94738821
 20
-19.10083959
  0
VERTEX
  8
0
 10
-4.99831161
 20
-19.37034706
  0
VERTEX
  8
0
 10
-4.03069759
 20
-19.59367108
  0
VERTEX
  8
0
 10
-3.04580278
 20
-19.76955503
  0
VERTEX
  8
0
 10
-2.04488382
 20
-19.89674225
  0
VERTEX
  8
0
 10
-1.02919735
 20
-19.97397612
  0
VERTEX
  8
0
 10
0.00000000
 20
-20.00000000
  0
VERTEX
  8
0
 10
1.02919735
 20
-19.97397612
  0
VERTEX
  8
0
 10
2.04488382
 20
-19.89674225
  0
VERTEX
  8
0
 10
3.04580278
 20
-19.76955503
  0
VERTEX
  8
0
 10
4.03069759
 20
-19.59367108
  0
VERTEX
  8
0
 10
4.99831161
 20
-19.37034706
  0
VERTEX
  8
0
 10
5.94738821
 20
-19.10083959
  0
VERTEX
  8
0
 10
6.87667074
 20
-18.78640531
  0
VERTEX
  8
0
 10
7.78490258
 20
-18.42830086
  0
VERTEX
  8
0
 10
8.67082708
 20
-18.02778288
  0
VERTEX
  8
0
 10
9.53318760
 20
-17.58610800
  0
VERTEX
  8
0
 10
10.37072752
 20
-17.10453287
  0
VERTEX
  8
0
 10
11.18219018
 20
-16.58431411
  0
VERTEX
  8
0
 10
11.96631897
 20
-16.02670837
  0
VERTEX
  8
0
 10
12.72185722
 20
-15.43297229
  0
VERTEX
  8
0
 10
13.44754832
 20
-14.80436249
  0
VERTEX
  8
0
 10
14.14213562
 20
-14.14213562
  0
VERTEX
  8
0
 10
14.80436249
 20
-13.44754832
  0
VERTEX
  8
0
 10
15.43297229
 20
-12.72185722
  0
VERTEX
  8
0
 10
16.02670837
 20
-11.96631897
  0
VERTEX
  8
0
 10
16.58431411
 20
-11.18219018
  0
VERTEX
  8
0
 10
17.10453287
 20
-10.37072752
  0
VERTEX
  8
0
 10
17.58610800
 20
-9.53318760
  0
VERTEX
  8
0
 10
18.02778288
 20
-8.67082708
  0
VERTEX
  8
0
 10
18.42830086
 20
-7.78490258
  0
VERTEX
  8
0
 10
18.78640531
 20
-6.87667074
  0
VERTEX
  8
0
 10
19.10083959
 20
-5.94738821
  0
VERTEX
  8
0
 10
19.37034706
 20
-4.99831161
  0
VERTEX
  8
0
 10
19.59367108
 20
-4.03069759
  0
VERTEX
  8
0
 10
19.76955503
 20
-3.04580278
  0
VERTEX
  8
0
 10
19.89674225
 20
-2.04488382
  0
VERTEX
  8
0
 10
19.97397612
 20
-1.02919735
  0
VERTEX
  8
0
 10
20.00000000
 20
0.00000000
  0
VERTEX
  8
0
 10
19.97397612
 20
1.02919735
  0
VERTEX
  8
0
 10
19.89674225
 20
2.04488382
  0
VERTEX
  8
0
 10
19.76955503
 20
3.04580278
  0
VERTEX
  8
0
 10
19.59367108
 20
4.03069759
  0
VERTEX
  8
0
 10
19.37034706
 20
4.99831161
  0
VERTEX
  8
0
 10
19.10083959
 20
5.94738821
  0
VERTEX
  8
0
 10
18.78640531
 20
6.87667074
  0
VERTEX
  8
0
 10
18.42830086
 20
7.78490258
  0
VERTEX
  8
0
 10
18.02778288
 20
8.67082708
  0
VERTEX
  8
0
 10
17.58610800
 20
9.53318760
  0
VERTEX
  8
0
 10
17.10453287
 20
10.37072752
  0
VERTEX
  8
0
 10
16.58431411
 20
11.18219018
  0
VERTEX
  8
0
 10
16.02670837
 20
11.96631897
  0
VERTEX
  8
0
 10
15.43297229
 20
12.72185722
  0
VERTEX
  8
0
 10
14.80436249
 20
13.44754832
  0
VERTEX
  8
0
 10
14.14213562
 20
14.14213562
  0
VERTEX
  8
0
 10
13.44754832
 20
14.80436249
  0
VERTEX
  8
0
 10
12.72185722
 20
15.43297229
  0
VERTEX
  8
0
 10
11.96631897
 20
16.02670837
  0
VERTEX
  8
0
 10
11.18219018
 20
16.58431411
  0
VERTEX
  8
0
 10
10.37072752
 20
17.10453287
  0
VERTEX
  8
0
 10
9.53318760
 20
17.58610800
  0
VERTEX
  8
0
 10
8.67082708
 20
18.02778288
  0
VERTEX
  8
0
 10
7.78490258
 20
18.42830086
  0
VERTEX
  8
0
 10
6.87667074
 20
18.78640531
  0
VERTEX
  8
0
 10
5.94738821
 20
19.10083959
  0
VERTEX
  8
0
 10
4.99831161
 20
19.37034706
  0
VERTEX
  8
0
 10
4.03069759
 20
19.59367108
  0
VERTEX
  8
0
 10
3.04580278
 20
19.76955503
  0
VERTEX
  8
0
 10
2.04488382
 20
19.89674225
  0
VERTEX
  8
0
 10
1.02919735
 20
19.97397612
  0
VERTEX
  8
0
 10
0.00000000
 20
20.00000000
  0
VERTEX
  8
0
 10
-1.02919735
 20
19.97397612
  0
VERTEX
  8
0
 10
-2.04488382
 20
19.89674225
  0
VERTEX
  8
0
 10
-3.04580278
 20
19.76955503
  0
VERTEX
  8
0
 10
-4.03069759
 20
19.59367108
  0
VERTEX
  8
0
 10
-4.99831161
 20
19.37034706
  0
VERTEX
  8
0
 10
-5.94738821
 20
19.10083959
  0
VERTEX
  8
0
 10
-6.87667074
 20
18.78640531
  0
VERTEX
  8
0
 10
-7.78490258
 20
18.42830086
  0
VERTEX
  8
0
 10
-8.67082708
 20
18.02778288
  0
VERTEX
  8
0
 10
-9.53318760
 20
17.58610800
  0
VERTEX
  8
0
 10
-10.37072752
 20
17.10453287
  0
VERTEX
  8
0
 10
-11.18219018
 20
16.58431411
  0
VERTEX
  8
0
 10
-11.96631897
 20
16.02670837
  0
VERTEX
  8
0
 10
-12.72185722
 20
15.43297229
  0
VERTEX
  8
0
 10
-13.44754832
 20
14.80436249
  0
VERTEX
  8
0
 10
-14.14213562
 20
14.14213562
  0
VERTEX
  8
0
 10
-14.80436249
 20
13.44754832
  0
VERTEX
  8
0
 10
-15.43297229
 20
12.72185722
  0
VERTEX
  8
0
 10
-16.02670837
 20
11.96631897
  0
VERTEX
  8
0
 10
-16.58431411
 20
11.18219018
  0
VERTEX
  8
0
 10
-17.10453287
 20
10.37072752
  0
VERTEX
  8
0
 10
-17.58610800
 20
9.53318760
  0
VERTEX
  8
0
 10
-18.02778288
 20
8.67082708
  0
VERTEX
  8
0
 10
-18.42830086
 20
7.78490258
  0
VERTEX
  8
0
 10
-18.78640531
 20
6.87667074
  0
VERTEX
  8
0
 10
-19.10083959
 20
5.94738821
  0
VERTEX
  8
0
 10
-19.37034706
 20
4.99831161
  0
VERTEX
  8
0
 10
-19.59367108
 20
4.03069759
  0
VERTEX
  8
0
 10
-19.76955503
 20
3.04580278
  0
VERTEX
  8
0
 10
-19.89674225
 20
2.04488382
  0
VERTEX
  8
0
 10
-19.97397612
 20
1.02919735
  0
VERTEX
  8
0
 10
-20.00000000
 20
0.00000000
  0
SEQEND
  0
POLYLINE
  8
Capa por Defecto
 66
   1
 39
0.000000
 70
    1
  0
VERTEX
  8
0
 10
9.45000000
 20
0.00000000
  0
VERTEX
  8
0
 10
9.43770372
 20
0.48629575
  0
VERTEX
  8
0
 10
9.40121072
 20
0.96620760
  0
VERTEX
  8
0
 10
9.34111475
 20
1.43914181
  0
VERTEX
  8
0
 10
9.25800959
 20
1.90450461
  0
VERTEX
  8
0
 10
9.15248898
 20
2.36170224
  0
VERTEX
  8
0
 10
9.02514670
 20
2.81014093
  0
VERTEX
  8
0
 10
8.87657651
 20
3.24922692
  0
VERTEX
  8
0
 10
8.70737216
 20
3.67836647
  0
VERTEX
  8
0
 10
8.51812741
 20
4.09696579
  0
VERTEX
  8
0
 10
8.30943603
 20
4.50443114
  0
VERTEX
  8
0
 10
8.08189178
 20
4.90016875
  0
VERTEX
  8
0
 10
7.83608842
 20
5.28358486
  0
VERTEX
  8
0
 10
7.57261971
 20
5.65408571
  0
VERTEX
  8
0
 10
7.29207940
 20
6.01107754
  0
VERTEX
  8
0
 10
6.99506128
 20
6.35396658
  0
VERTEX
  8
0
 10
6.68215908
 20
6.68215908
  0
VERTEX
  8
0
 10
6.35396658
 20
6.99506128
  0
VERTEX
  8
0
 10
6.01107754
 20
7.29207940
  0
VERTEX
  8
0
 10
5.65408571
 20
7.57261971
  0
VERTEX
  8
0
 10
5.28358486
 20
7.83608842
  0
VERTEX
  8
0
 10
4.90016875
 20
8.08189178
  0
VERTEX
  8
0
 10
4.50443114
 20
8.30943603
  0
VERTEX
  8
0
 10
4.09696579
 20
8.51812741
  0
VERTEX
  8
0
 10
3.67836647
 20
8.70737216
  0
VERTEX
  8
0
 10
3.24922692
 20
8.87657651
  0
VERTEX
  8
0
 10
2.81014093
 20
9.02514670
  0
VERTEX
  8
0
 10
2.36170224
 20
9.15248898
  0
VERTEX
  8
0
 10
1.90450461
 20
9.25800959
  0
VERTEX
  8
0
 10
1.43914181
 20
9.34111475
  0
VERTEX
  8
0
 10
0.96620760
 20
9.40121072
  0
VERTEX
  8
0
 10
0.48629575
 20
9.43770372
  0
VERTEX
  8
0
 10
0.00000000
 20
9.45000000
  0
VERTEX
  8
0
 10
-0.48629575
 20
9.43770372
  0
VERTEX
  8
0
 10
-0.96620760
 20
9.40121072
  0
VERTEX
  8
0
 10
-1.43914181
 20
9.34111475
  0
VERTEX
  8
0
 10
-1.90450461
 20
9.25800959
  0
VERTEX
  8
0
 10
-2.36170224
 20
9.15248898
  0
VERTEX
  8
0
 10
-2.81014093
 20
9.02514670
  0
VERTEX
  8
0
 10
-3.24922692
 20
8.87657651
  0
VERTEX
  8
0
 10
-3.67836647
 20
8.70737216
  0
VERTEX
  8
0
 10
-4.09696579
 20
8.51812741
  0
VERTEX
  8
0
 10
-4.50443114
 20
8.30943603
  0
VERTEX
  8
0
 10
-4.90016875
 20
8.08189178
  0
VERTEX
  8
0
 10
-5.28358486
 20
7.83608842
  0
VERTEX
  8
0
 10
-5.65408571
 20
7.57261971
  0
VERTEX
  8
0
 10
-6.01107754
 20
7.29207940
  0
VERTEX
  8
0
 10
-6.35396658
 20
6.99506128
  0
VERTEX
  8
0
 10
-6.68215908
 20
6.68215908
  0
VERTEX
  8
0
 10
-6.99506128
 20
6.35396658
  0
VERTEX
  8
0
 10
-7.29207940
 20
6.01107754
  0
VERTEX
  8
0
 10
-7.57261971
 20
5.65408571
  0
VERTEX
  8
0
 10
-7.83608842
 20
5.28358486
  0
VERTEX
  8
0
 10
-8.08189178
 20
4.90016875
  0
VERTEX
  8
0
 10
-8.30943603
 20
4.50443114
  0
VERTEX
  8
0
 10
-8.51812741
 20
4.09696579
  0
VERTEX
  8
0
 10
-8.70737216
 20
3.67836647
  0
VERTEX
  8
0
 10
-8.87657651
 20
3.24922692
  0
VERTEX
  8
0
 10
-9.02514670
 20
2.81014093
  0
VERTEX
  8
0
 10
-9.15248898
 20
2.36170224
  0
VERTEX
  8
0
 10
-9.25800959
 20
1.90450461
  0
VERTEX
  8
0
 10
-9.34111475
 20
1.43914181
  0
VERTEX
  8
0
 10
-9.40121072
 20
0.96620760
  0
VERTEX
  8
0
 10
-9.43770372
 20
0.48629575
  0
VERTEX
  8
0
 10
-9.45000000
 20
0.00000000
  0
VERTEX
  8
0
 10
-9.43770372
 20
-0.48629575
  0
VERTEX
  8
0
 10
-9.40121072
 20
-0.96620760
  0
VERTEX
  8
0
 10
-9.34111475
 20
-1.43914181
  0
VERTEX
  8
0
 10
-9.25800959
 20
-1.90450461
  0
VERTEX
  8
0
 10
-9.15248898
 20
-2.36170224
  0
VERTEX
  8
0
 10
-9.02514670
 20
-2.81014093
  0
VERTEX
  8
0
 10
-8.87657651
 20
-3.24922692
  0
VERTEX
  8
0
 10
-8.70737216
 20
-3.67836647
  0
VERTEX
  8
0
 10
-8.51812741
 20
-4.09696579
  0
VERTEX
  8
0
 10
-8.30943603
 20
-4.50443114
  0
VERTEX
  8
0
 10
-8.08189178
 20
-4.90016875
  0
VERTEX
  8
0
 10
-7.83608842
 20
-5.28358486
  0
VERTEX
  8
0
 10
-7.57261971
 20
-5.65408571
  0
VERTEX
  8
0
 10
-7.29207940
 20
-6.01107754
  0
VERTEX
  8
0
 10
-6.99506128
 20
-6.35396658
  0
VERTEX
  8
0
 10
-6.68215908
 20
-6.68215908
  0
VERTEX
  8
0
 10
-6.35396658
 20
-6.99506128
  0
VERTEX
  8
0
 10
-6.01107754
 20
-7.29207940
  0
VERTEX
  8
0
 10
-5.65408571
 20
-7.57261971
  0
VERTEX
  8
0
 10
-5.28358486
 20
-7.83608842
  0
VERTEX
  8
0
 10
-4.90016875
 20
-8.08189178
  0
VERTEX
  8
0
 10
-4.50443114
 20
-8.30943603
  0
VERTEX
  8
0
 10
-4.09696579
 20
-8.51812741
  0
VERTEX
  8
0
 10
-3.67836647
 20
-8.70737216
  0
VERTEX
  8
0
 10
-3.24922692
 20
-8.87657651
  0
VERTEX
  8
0
 10
-2.81014093
 20
-9.02514670
  0
VERTEX
  8
0
 10
-2.36170224
 20
-9.15248898
  0
VERTEX
  8
0
 10
-1.90450461
 20
-9.25800959
  0
VERTEX
  8
0
 10
-1.43914181
 20
-9.34111475
  0
VERTEX
  8
0
 10
-0.96620760
 20
-9.40121072
  0
VERTEX
  8
0
 10
-0.48629575
 20
-9.43770372
  0
VERTEX
  8
0
 10
0.00000000
 20
-9.45000000
  0
VERTEX
  8
0
 10
0.48629575
 20
-9.43770372
  0
VERTEX
  8
0
 10
0.96620760
 20
-9.40121072
  0
VERTEX
  8
0
 10
1.43914181
 20
-9.34111475
  0
VERTEX
  8
0
 10
1.90450461
 20
-9.25800959
  0
VERTEX
  8
0
 10
2.36170224
 20
-9.15248898
  0
VERTEX
  8
0
 10
2.81014093
 20
-9.02514670
  0
VERTEX
  8
0
 10
3.24922692
 20
-8.87657651
  0
VERTEX
  8
0
 10
3.67836647
 20
-8.70737216
  0
VERTEX
  8
0
 10
4.09696579
 20
-8.51812741
  0
VERTEX
  8
0
 10
4.50443114
 20
-8.30943603
  0
VERTEX
  8
0
 10
4.90016875
 20
-8.08189178
  0
VERTEX
  8
0
 10
5.28358486
 20
-7.83608842
  0
VERTEX
  8
0
 10
5.65408571
 20
-7.57261971
  0
VERTEX
  8
0
 10
6.01107754
 20
-7.29207940
  0
VERTEX
  8
0
 10
6.35396658
 20
-6.99506128
  0
VERTEX
  8
0
 10
6.68215908
 20
-6.68215908
  0
VERTEX
  8
0
 10
6.99506128
 20
-6.35396658
  0
VERTEX
  8
0
 10
7.29207940
 20
-6.01107754
  0
VERTEX
  8
0
 10
7.57261971
 20
-5.65408571
  0
VERTEX
  8
0
 10
7.83608842
 20
-5.28358486
  0
VERTEX
  8
0
 10
8.08189178
 20
-4.90016875
  0
VERTEX
  8
0
 10
8.30943603
 20
-4.50443114
  0
VERTEX
  8
0
 10
8.51812741
 20
-4.09696579
  0
VERTEX
  8
0
 10
8.70737216
 20
-3.67836647
  0
VERTEX
  8
0
 10
8.87657651
 20
-3.24922692
  0
VERTEX
  8
0
 10
9.02514670
 20
-2.81014093
  0
VERTEX
  8
0
 10
9.15248898
 20
-2.36170224
  0
VERTEX
  8
0
 10
9.25800959
 20
-1.90450461
  0
VERTEX
  8
0
 10
9.34111475
 20
-1.43914181
  0
VERTEX
  8
0
 10
9.40121072
 20
-0.96620760
  0
VERTEX
  8
0
 10
9.43770372
 20
-0.48629575
  0
VERTEX
  8
0
 10
9.45000000
 20
0.00000000
  0
SEQEND
  0
POLYLINE
  8
Capa por Defecto
 66
   1
 39
0.000000
 70
    1
  0
VERTEX
  8
0
 10
5.50000000
 20
0.00000000
  0
VERTEX
  8
0
 10
5.47160412
 20
0.56234305
  0
VERTEX
  8
0
 10
5.38825955
 20
1.10844184
  0
VERTEX
  8
0
 10
5.25273089
 20
1.63553176
  0
VERTEX
  8
0
 10
5.06778274
 20
2.14084821
  0
VERTEX
  8
0
 10
4.83617970
 20
2.62162659
  0
VERTEX
  8
0
 10
4.56068638
 20
3.07510230
  0
VERTEX
  8
0
 10
4.24406738
 20
3.49851074
  0
VERTEX
  8
0
 10
3.88908730
 20
3.88908730
  0
VERTEX
  8
0
 10
3.49851074
 20
4.24406738
  0
VERTEX
  8
0
 10
3.07510230
 20
4.56068638
  0
VERTEX
  8
0
 10
2.62162659
 20
4.83617970
  0
VERTEX
  8
0
 10
2.14084821
 20
5.06778274
  0
VERTEX
  8
0
 10
1.63553176
 20
5.25273089
  0
VERTEX
  8
0
 10
1.10844184
 20
5.38825955
  0
VERTEX
  8
0
 10
0.56234305
 20
5.47160412
  0
VERTEX
  8
0
 10
0.00000000
 20
5.50000000
  0
VERTEX
  8
0
 10
-0.56234305
 20
5.47160412
  0
VERTEX
  8
0
 10
-1.10844184
 20
5.38825955
  0
VERTEX
  8
0
 10
-1.63553176
 20
5.25273089
  0
VERTEX
  8
0
 10
-2.14084821
 20
5.06778274
  0
VERTEX
  8
0
 10
-2.62162659
 20
4.83617970
  0
VERTEX
  8
0
 10
-3.07510230
 20
4.56068638
  0
VERTEX
  8
0
 10
-3.49851074
 20
4.24406738
  0
VERTEX
  8
0
 10
-3.88908730
 20
3.88908730
  0
VERTEX
  8
0
 10
-4.24406738
 20
3.49851074
  0
VERTEX
  8
0
 10
-4.56068638
 20
3.07510230
  0
VERTEX
  8
0
 10
-4.83617970
 20
2.62162659
  0
VERTEX
  8
0
 10
-5.06778274
 20
2.14084821
  0
VERTEX
  8
0
 10
-5.25273089
 20
1.63553176
  0
VERTEX
  8
0
 10
-5.38825955
 20
1.10844184
  0
VERTEX
  8
0
 10
-5.47160412
 20
0.56234305
  0
VERTEX
  8
0
 10
-5.50000000
 20
0.00000000
  0
VERTEX
  8
0
 10
-5.47160412
 20
-0.56234305
  0
VERTEX
  8
0
 10
-5.38825955
 20
-1.10844184
  0
VERTEX
  8
0
 10
-5.25273089
 20
-1.63553176
  0
VERTEX
  8
0
 10
-5.06778274
 20
-2.14084821
  0
VERTEX
  8
0
 10
-4.83617970
 20
-2.62162659
  0
VERTEX
  8
0
 10
-4.56068638
 20
-3.07510230
  0
VERTEX
  8
0
 10
-4.24406738
 20
-3.49851074
  0
VERTEX
  8
0
 10
-3.88908730
 20
-3.88908730
  0
VERTEX
  8
0
 10
-3.49851074
 20
-4.24406738
  0
VERTEX
  8
0
 10
-3.07510230
 20
-4.56068638
  0
VERTEX
  8
0
 10
-2.62162659
 20
-4.83617970
  0
VERTEX
  8
0
 10
-2.14084821
 20
-5.06778274
  0
VERTEX
  8
0
 10
-1.63553176
 20
-5.25273089
  0
VERTEX
  8
0
 10
-1.10844184
 20
-5.38825955
  0
VERTEX
  8
0
 10
-0.56234305
 20
-5.47160412
  0
VERTEX
  8
0
 10
0.00000000
 20
-5.50000000
  0
VERTEX
  8
0
 10
0.56234305
 20
-5.47160412
  0
VERTEX
  8
0
 10
1.10844184
 20
-5.38825955
  0
VERTEX
  8
0
 10
1.63553176
 20
-5.25273089
  0
VERTEX
  8
0
 10
2.14084821
 20
-5.06778274
  0
VERTEX
  8
0
 10
2.62162659
 20
-4.83617970
  0
VERTEX
  8
0
 10
3.07510230
 20
-4.56068638
  0
VERTEX
  8
0
 10
3.49851074
 20
-4.24406738
  0
VERTEX
  8
0
 10
3.88908730
 20
-3.88908730
  0
VERTEX
  8
0
 10
4.24406738
 20
-3.49851074
  0
VERTEX
  8
0
 10
4.56068638
 20
-3.07510230
  0
VERTEX
  8
0
 10
4.83617970
 20
-2.62162659
  0
VERTEX
  8
0
 10
5.06778274
 20
-2.14084821
  0
VERTEX
  8
0
 10
5.25273089
 20
-1.63553176
  0
VERTEX
  8
0
 10
5.38825955
 20
-1.10844184
  0
VERTEX
  8
0
 10
5.47160412
 20
-0.56234305
  0
VERTEX
  8
0
 10
5.50000000
 20
0.00000000
  0
SEQEND
  0
POLYLINE
  8
Capa por Defecto
 66
   1
 39
0.000000
 70
    0
  0
VERTEX
  8
0
 10
2.59855610
 20
11.00000000
  0
VERTEX
  8
0
 10
2.59860646
 20
11.00008518
  0
SEQEND
  0
POLYLINE
  8
Capa por Defecto
 66
   1
 39
0.000000
 70
    0
  0
VERTEX
  8
0
 10
2.59860646
 20
11.00008518
  0
VERTEX
  8
0
 10
2.59850000
 20
11.00000000
  0
SEQEND
  0
POLYLINE
  8
Capa por Defecto
 66
   1
 39
0.000000
 70
    0
  0
VERTEX
  8
0
 10
2.59855610
 20
11.00000000
  0
VERTEX
  8
0
 10
2.59860646
 20
11.00008518
  0
SEQEND
  0
POLYLINE
  8
Capa por Defecto
 66
   1
 39
0.000000
 70
    0
  0
VERTEX
  8
0
 10
2.59860646
 20
11.00008518
  0
VERTEX
  8
0
 10
2.59850000
 20
11.00000000
  0
SEQEND
  0
ENDSEC
  0
EOF
